  0
SECTION
  2
HEADER
  9
$ACADVER
  1
AC1021
  9
$ACADMAINTVER
 70
    50
  9
$DWGCODEPAGE
  3
ANSI_1257
  9
$AUTHOR
  1
AndrejsI
  9
$LASTSAVEDBY
  1
AndrejsI
  9
$INSBASE
 10
0.0
 20
0.0
 30
0.0
  9
$EXTMIN
 10
552544.17
 20
335194.715
 30
0.0
  9
$EXTMAX
 10
552695.351
 20
335308.924
 30
0.0
  9
$LIMMIN
 10
552240.817811
 20
334872.876811
  9
$LIMMAX
 10
552998.703189
 20
335630.762189
  9
$ORTHOMODE
 70
     0
  9
$REGENMODE
 70
     1
  9
$FILLMODE
 70
     1
  9
$QTEXTMODE
 70
     0
  9
$MIRRTEXT
 70
     0
  9
$LTSCALE
 40
1.0
  9
$ATTMODE
 70
     1
  9
$TEXTSIZE
 40
0.25
  9
$TRACEWID
 40
0.05
  9
$TEXTSTYLE
  7
Standard
  9
$CLAYER
  8
RELJ_HORZ_PAMT_####_#
  9
$CELTYPE
  6
ByLayer
  9
$CECOLOR
 62
   256
  9
$CELTSCALE
 40
1.0
  9
$DISPSILH
 70
     0
  9
$DIMSCALE
 40
1.0
  9
$DIMASZ
 40
0.25
  9
$DIMEXO
 40
0.125
  9
$DIMDLI
 40
0.0
  9
$DIMRND
 40
0.0
  9
$DIMDLE
 40
0.0
  9
$DIMEXE
 40
0.125
  9
$DIMTP
 40
0.0
  9
$DIMTM
 40
0.0
  9
$DIMTXT
 40
0.25
  9
$DIMCEN
 40
0.09
  9
$DIMTSZ
 40
0.0
  9
$DIMTOL
 70
     0
  9
$DIMLIM
 70
     0
  9
$DIMTIH
 70
     0
  9
$DIMTOH
 70
     0
  9
$DIMSE1
 70
     0
  9
$DIMSE2
 70
     0
  9
$DIMTAD
 70
     1
  9
$DIMZIN
 70
    11
  9
$DIMBLK
  1
TerminatorOpen_0.5
  9
$DIMASO
 70
     1
  9
$DIMSHO
 70
     1
  9
$DIMPOST
  1

  9
$DIMAPOST
  1

  9
$DIMALT
 70
     0
  9
$DIMALTD
 70
     4
  9
$DIMALTF
 40
1.0
  9
$DIMLFAC
 40
1.0
  9
$DIMTOFL
 70
     0
  9
$DIMTVP
 40
0.0
  9
$DIMTIX
 70
     0
  9
$DIMSOXD
 70
     0
  9
$DIMSAH
 70
     0
  9
$DIMBLK1
  1

  9
$DIMBLK2
  1

  9
$DIMSTYLE
  2
Standard
  9
$DIMCLRD
 70
     0
  9
$DIMCLRE
 70
     0
  9
$DIMCLRT
 70
     0
  9
$DIMTFAC
 40
1.0
  9
$DIMGAP
 40
0.125
  9
$DIMJUST
 70
     0
  9
$DIMSD1
 70
     0
  9
$DIMSD2
 70
     0
  9
$DIMTOLJ
 70
     0
  9
$DIMTZIN
 70
    11
  9
$DIMALTZ
 70
    15
  9
$DIMALTTZ
 70
    15
  9
$DIMUPT
 70
     0
  9
$DIMDEC
 70
     4
  9
$DIMTDEC
 70
     4
  9
$DIMALTU
 70
     2
  9
$DIMALTTD
 70
     4
  9
$DIMTXSTY
  7
Style-Arial
  9
$DIMAUNIT
 70
     0
  9
$DIMADEC
 70
     4
  9
$DIMALTRND
 40
0.0
  9
$DIMAZIN
 70
     3
  9
$DIMDSEP
 70
    46
  9
$DIMATFIT
 70
     1
  9
$DIMFRAC
 70
     2
  9
$DIMLDRBLK
  1
TerminatorOpen_0.5
  9
$DIMLUNIT
 70
     2
  9
$DIMLWD
 70
    -2
  9
$DIMLWE
 70
    -2
  9
$DIMTMOVE
 70
     0
  9
$DIMFXL
 40
1.0
  9
$DIMFXLON
 70
     0
  9
$DIMJOGANG
 40
0.785398
  9
$DIMTFILL
 70
     0
  9
$DIMTFILLCLR
 70
     0
  9
$DIMARCSYM
 70
     0
  9
$DIMLTYPE
  6

  9
$DIMLTEX1
  6

  9
$DIMLTEX2
  6

  9
$LUNITS
 70
     2
  9
$LUPREC
 70
     4
  9
$SKETCHINC
 40
0.1
  9
$FILLETRAD
 40
0.0
  9
$AUNITS
 70
     0
  9
$AUPREC
 70
     4
  9
$MENU
  1
.
  9
$ELEVATION
 40
0.0
  9
$PELEVATION
 40
0.0
  9
$THICKNESS
 40
0.0
  9
$LIMCHECK
 70
     0
  9
$CHAMFERA
 40
0.0
  9
$CHAMFERB
 40
0.0
  9
$CHAMFERC
 40
0.0
  9
$CHAMFERD
 40
0.0
  9
$SKPOLY
 70
     0
  9
$TDCREATE
 40
2454144.903024016
  9
$TDUCREATE
 40
2454144.778024017
  9
$TDUPDATE
 40
2454144.903687025
  9
$TDUUPDATE
 40
2454144.778687026
  9
$TDINDWG
 40
0.0008867477
  9
$TDUSRTIMER
 40
0.0008864005
  9
$USRTIMER
 70
     1
  9
$ANGBASE
 50
0.0
  9
$ANGDIR
 70
     0
  9
$PDMODE
 70
     0
  9
$PDSIZE
 40
0.0
  9
$PLINEWID
 40
0.0
  9
$SPLFRAME
 70
     0
  9
$SPLINETYPE
 70
     6
  9
$SPLINESEGS
 70
     8
  9
$HANDSEED
  5
E78
  9
$SURFTAB1
 70
     6
  9
$SURFTAB2
 70
     6
  9
$SURFTYPE
 70
     6
  9
$SURFU
 70
     6
  9
$SURFV
 70
     6
  9
$UCSBASE
  2

  9
$UCSNAME
  2

  9
$UCSORG
 10
0.0
 20
0.0
 30
0.0
  9
$UCSXDIR
 10
1.0
 20
0.0
 30
0.0
  9
$UCSYDIR
 10
0.0
 20
1.0
 30
0.0
  9
$UCSORTHOREF
  2

  9
$UCSORTHOVIEW
 70
     0
  9
$UCSORGTOP
 10
0.0
 20
0.0
 30
0.0
  9
$UCSORGBOTTOM
 10
0.0
 20
0.0
 30
0.0
  9
$UCSORGLEFT
 10
0.0
 20
0.0
 30
0.0
  9
$UCSORGRIGHT
 10
0.0
 20
0.0
 30
0.0
  9
$UCSORGFRONT
 10
0.0
 20
0.0
 30
0.0
  9
$UCSORGBACK
 10
0.0
 20
0.0
 30
0.0
  9
$PUCSBASE
  2

  9
$PUCSNAME
  2

  9
$PUCSORG
 10
0.0
 20
0.0
 30
0.0
  9
$PUCSXDIR
 10
1.0
 20
0.0
 30
0.0
  9
$PUCSYDIR
 10
0.0
 20
1.0
 30
0.0
  9
$PUCSORTHOREF
  2

  9
$PUCSORTHOVIEW
 70
     0
  9
$PUCSORGTOP
 10
0.0
 20
0.0
 30
0.0
  9
$PUCSORGBOTTOM
 10
0.0
 20
0.0
 30
0.0
  9
$PUCSORGLEFT
 10
0.0
 20
0.0
 30
0.0
  9
$PUCSORGRIGHT
 10
0.0
 20
0.0
 30
0.0
  9
$PUCSORGFRONT
 10
0.0
 20
0.0
 30
0.0
  9
$PUCSORGBACK
 10
0.0
 20
0.0
 30
0.0
  9
$USERI1
 70
     0
  9
$USERI2
 70
     0
  9
$USERI3
 70
     0
  9
$USERI4
 70
     0
  9
$USERI5
 70
     0
  9
$USERR1
 40
0.0
  9
$USERR2
 40
0.0
  9
$USERR3
 40
0.0
  9
$USERR4
 40
0.0
  9
$USERR5
 40
0.0
  9
$WORLDVIEW
 70
     1
  9
$SHADEDGE
 70
     3
  9
$SHADEDIF
 70
    70
  9
$TILEMODE
 70
     1
  9
$MAXACTVP
 70
    64
  9
$PINSBASE
 10
0.0
 20
0.0
 30
0.0
  9
$PLIMCHECK
 70
     0
  9
$PEXTMIN
 10
1.049744
 20
0.799667
 30
-0.001526
  9
$PEXTMAX
 10
9.450623
 20
7.200577
 30
0.0
  9
$PLIMMIN
 10
-0.25
 20
-0.25
  9
$PLIMMAX
 10
10.75
 20
8.25
  9
$UNITMODE
 70
     0
  9
$VISRETAIN
 70
     1
  9
$PLINEGEN
 70
     0
  9
$PSLTSCALE
 70
     0
  9
$TREEDEPTH
 70
  3020
  9
$CMLSTYLE
  2
Standard
  9
$CMLJUST
 70
     0
  9
$CMLSCALE
 40
1.0
  9
$PROXYGRAPHICS
 70
     1
  9
$MEASUREMENT
 70
     0
  9
$CELWEIGHT
370
    -1
  9
$ENDCAPS
280
     0
  9
$JOINSTYLE
280
     0
  9
$LWDISPLAY
290
     1
  9
$INSUNITS
 70
     6
  9
$HYPERLINKBASE
  1

  9
$STYLESHEET
  1

  9
$XEDIT
290
     1
  9
$CEPSNTYPE
380
     0
  9
$PSTYLEMODE
290
     1
  9
$FINGERPRINTGUID
  2
{DA258E01-D468-4281-BE3A-A5345646086D}
  9
$VERSIONGUID
  2
{82C521FC-BF81-46B3-825E-420B6BD93A99}
  9
$EXTNAMES
290
     1
  9
$PSVPSCALE
 40
0.0
  9
$OLESTARTUP
290
     0
  9
$SORTENTS
280
   127
  9
$INDEXCTL
280
     0
  9
$HIDETEXT
280
     1
  9
$XCLIPFRAME
290
     0
  9
$HALOGAP
280
     0
  9
$OBSCOLOR
 70
   257
  9
$OBSLTYPE
280
     0
  9
$INTERSECTIONDISPLAY
280
     0
  9
$INTERSECTIONCOLOR
 70
   257
  9
$DIMASSOC
280
     2
  9
$PROJECTNAME
  1

  9
$CAMERADISPLAY
290
     0
  9
$LENSLENGTH
 40
50.0
  9
$CAMERAHEIGHT
 40
0.0
  9
$STEPSPERSEC
 40
2.0
  9
$STEPSIZE
 40
6.0
  9
$3DDWFPREC
 40
2.0
  9
$PSOLWIDTH
 40
0.25
  9
$PSOLHEIGHT
 40
4.0
  9
$LOFTANG1
 40
1.570796
  9
$LOFTANG2
 40
1.570796
  9
$LOFTMAG1
 40
0.0
  9
$LOFTMAG2
 40
0.0
  9
$LOFTPARAM
 70
     7
  9
$LOFTNORMALS
280
     1
  9
$LATITUDE
 40
37.795
  9
$LONGITUDE
 40
-122.394
  9
$NORTHDIRECTION
 40
0.0
  9
$TIMEZONE
 70
 -8000
  9
$LIGHTGLYPHDISPLAY
280
     1
  9
$TILEMODELIGHTSYNCH
280
     1
  9
$CMATERIAL
347
C2F
  9
$SOLIDHIST
280
     1
  9
$SHOWHIST
280
     1
  9
$DWFFRAME
280
     2
  9
$DGNFRAME
280
     0
  9
$REALWORLDSCALE
290
     1
  9
$INTERFERECOLOR
 62
     1
  9
$INTERFEREOBJVS
345
C45
  9
$INTERFEREVPVS
346
C46
  9
$CSHADOW
280
     0
  9
$SHADOWPLANELOCATION
 40
0.0
  0
ENDSEC
  0
SECTION
  2
CLASSES
  0
CLASS
  1
ACDBDICTIONARYWDFLT
  2
AcDbDictionaryWithDefault
  3
ObjectDBX Classes
 90
        0
 91
        1
280
     0
281
     0
  0
CLASS
  1
DICTIONARYVAR
  2
AcDbDictionaryVar
  3
ObjectDBX Classes
 90
        0
 91
        7
280
     0
281
     0
  0
CLASS
  1
TABLESTYLE
  2
AcDbTableStyle
  3
ObjectDBX Classes
 90
     4095
 91
        1
280
     0
281
     0
  0
CLASS
  1
MATERIAL
  2
AcDbMaterial
  3
ObjectDBX Classes
 90
     1153
 91
        3
280
     0
281
     0
  0
CLASS
  1
VISUALSTYLE
  2
AcDbVisualStyle
  3
ObjectDBX Classes
 90
     4095
 91
       19
280
     0
281
     0
  0
CLASS
  1
SCALE
  2
AcDbScale
  3
ObjectDBX Classes
 90
     1153
 91
       33
280
     0
281
     0
  0
CLASS
  1
MLEADERSTYLE
  2
AcDbMLeaderStyle
  3
ACDB_MLEADERSTYLE_CLASS
 90
     4095
 91
        1
280
     0
281
     0
  0
CLASS
  1
CELLSTYLEMAP
  2
AcDbCellStyleMap
  3
ObjectDBX Classes
 90
     1152
 91
        2
280
     0
281
     0
  0
ENDSEC
  0
SECTION
  2
TABLES
  0
TABLE
  2
VPORT
  5
C23
330
0
100
AcDbSymbolTable
 70
     1
  0
VPORT
  5
4B
330
C23
100
AcDbSymbolTableRecord
100
AcDbViewportTableRecord
  2
*ACTIVE
 70
     0
 10
0.0
 20
0.0
 11
1.0
 21
1.0
 12
552635.492579
 22
335238.547612
 13
0.0
 23
0.0
 14
0.1
 24
0.1
 15
0.1
 25
0.1
 16
0.0
 26
0.0
 36
1.0
 17
0.0
 27
0.0
 37
0.0
 40
118.39355
 41
1.911188
 42
50.0
 43
0.0
 44
0.0
 50
0.0
 51
0.0
 71
     0
 72
   100
 73
     1
 74
     0
 75
     0
 76
     0
 77
     0
 78
     1
281
     0
 65
     1
110
0.0
120
0.0
130
0.0
111
1.0
121
0.0
131
0.0
112
0.0
122
1.0
132
0.0
 79
     0
146
0.0
348
C25
 60
     3
 61
    10
292
     1
282
     1
141
0.0
142
0.0
 63
   250
421
  3355443
  0
ENDTAB
  0
TABLE
  2
LTYPE
  5
C1E
330
0
100
AcDbSymbolTable
 70
     6
  0
LTYPE
  5
C1F
330
C1E
100
AcDbSymbolTableRecord
100
AcDbLinetypeTableRecord
  2
ByBlock
 70
     0
  3

 72
    65
 73
     0
 40
0.0
  0
LTYPE
  5
C20
330
C1E
100
AcDbSymbolTableRecord
100
AcDbLinetypeTableRecord
  2
ByLayer
 70
     0
  3

 72
    65
 73
     0
 40
0.0
  0
LTYPE
  5
C0D
330
C1E
100
AcDbSymbolTableRecord
100
AcDbLinetypeTableRecord
  2
Continuous
 70
     0
  3
Solid line
 72
    65
 73
     0
 40
0.0
  0
LTYPE
  5
688
330
C1E
100
AcDbSymbolTableRecord
100
AcDbLinetypeTableRecord
  2
ADTI_2
 70
     0
  3

 72
    65
 73
     2
 40
0.75
 49
0.5
 74
     0
 49
-0.25
 74
     0
  0
LTYPE
  5
7B7
330
C1E
100
AcDbSymbolTableRecord
100
AcDbLinetypeTableRecord
  2
ADTI_1
 70
     0
  3

 72
    65
 73
     2
 40
0.6
 49
0.0
 74
     4
 75
     1
340
C6A
 46
0.000795
 50
0.0
 44
0.0
 45
0.0
 49
-0.6
 74
     0
  0
LTYPE
  5
879
330
C1E
100
AcDbSymbolTableRecord
100
AcDbLinetypeTableRecord
  2
SAKK_KKAN
 70
     0
  3

 72
    65
 73
     4
 40
11.0
 49
5.0
 74
     0
 49
-0.5
 74
     4
 75
    22
340
C6A
 46
0.005857
 50
0.0
 44
0.0
 45
0.0
 49
-0.5
 74
     0
 49
5.0
 74
     0
  0
LTYPE
  5
894
330
C1E
100
AcDbSymbolTableRecord
100
AcDbLinetypeTableRecord
  2
SAKT_VADP_KABE
 70
     0
  3

 72
    65
 73
     3
 40
5.0
 49
2.0
 74
     4
 75
    13
340
C6A
 46
0.002541
 50
0.0
 44
0.0
 45
0.0
 49
2.0
 74
     0
 49
-1.0
 74
     0
  0
LTYPE
  5
C9F
330
C1E
100
AcDbSymbolTableRecord
100
AcDbLinetypeTableRecord
  2
DGN Style 2
 70
     0
  3
Dgn Style 2
 72
    65
 73
     2
 40
2.262723
 49
1.357634
 74
     0
 49
-0.905089
 74
     0
  0
ENDTAB
  0
TABLE
  2
LAYER
  5
C18
102
{ACAD_XDICTIONARY
360
C19
102
}
330
0
100
AcDbSymbolTable
 70
    38
  0
LAYER
  5
C00
330
C18
100
AcDbSymbolTableRecord
100
AcDbLayerTableRecord
  2
0
 70
     0
 62
     7
  6
Continuous
370
    -3
390
C01
347
C04
  0
LAYER
  5
53A
330
C18
100
AcDbSymbolTableRecord
100
AcDbLayerTableRecord
  2
RELJ_HORZ_PAMT_####_#
 70
     0
 62
    32
420
 13791232
  6
Continuous
370
     0
390
C01
347
C04
1001
AcAecLayerStandard
1000

1000
Augstumlīkne
  0
LAYER
  5
543
330
C18
100
AcDbSymbolTableRecord
100
AcDbLayerTableRecord
  2
GEOD_ELEM_####_TKST_#
 70
     0
 62
     2
420
 16776960
  6
Continuous
370
    13
390
C01
347
C04
1001
AcAecLayerStandard
1000

1000
Ģeodēziskā tīkla un uzmērīšanas tīkla punkta numurs, augstums un to iznesuma līnija
  0
LAYER
  5
54C
330
C18
100
AcDbSymbolTableRecord
100
AcDbLayerTableRecord
  2
RELJ_AATZ_####_TKST_#
 70
     0
 62
     7
420
 16777215
  6
Continuous
370
     0
390
C01
347
C04
1001
AcAecLayerStandard
1000

1000
Augstuma atzīmes teksts
  0
LAYER
  5
68A
330
C18
100
AcDbSymbolTableRecord
100
AcDbLayerTableRecord
  2
2
 70
     0
 62
     7
  6
Continuous
370
     0
390
C01
347
C04
  0
LAYER
  5
68B
330
C18
100
AcDbSymbolTableRecord
100
AcDbLayerTableRecord
  2
CELI_CMAL_####_####_#
 70
     0
 62
   212
420
 13762770
  6
ADTI_2
370
     0
390
C01
347
C04
1001
AcAecLayerStandard
1000

1000
Ceļa, ielas mala
  0
LAYER
  5
696
330
C18
100
AcDbSymbolTableRecord
100
AcDbLayerTableRecord
  2
CELI_CSEG_####_TKST_#
 70
     0
 62
   212
420
 13762770
  6
Continuous
370
     0
390
C01
347
C04
1001
AcAecLayerStandard
1000

1000
Ceļa, laukuma seguma apraksts
  0
LAYER
  5
69F
330
C18
100
AcDbSymbolTableRecord
100
AcDbLayerTableRecord
  2
TERT_ELEM_####_####_#
 70
     0
 62
    16
420
  7864320
  6
Continuous
370
     0
390
C01
347
C04
1001
AcAecLayerStandard
1000

1000
Teritoriju elementi
  0
LAYER
  5
72A
330
C18
100
AcDbSymbolTableRecord
100
AcDbLayerTableRecord
  2
TERT_DIAM_####_TKST_#
 70
     0
 62
    92
420
    57600
  6
Continuous
370
     0
390
C01
347
C04
1001
AcAecLayerStandard
1000

1000
Koka diametrs, apraksts
  0
LAYER
  5
73F
330
C18
100
AcDbSymbolTableRecord
100
AcDbLayerTableRecord
  2
CELI_CAPM_####_####_#
 70
     0
 62
   212
420
 13762770
  6
ADTI_2
370
    13
390
C01
347
C04
1001
AcAecLayerStandard
1000

1000
Ceļš, iela ar apmali
  0
LAYER
  5
744
330
C18
100
AcDbSymbolTableRecord
100
AcDbLayerTableRecord
  2
BUVE_EKAS_BPAL_####_#
 70
     0
 62
     7
420
 16777215
  6
Continuous
370
     0
390
C01
347
C04
1001
AcAecLayerStandard
1000

1000
Palīgbūve, pagaidu būve
  0
LAYER
  5
749
330
C18
100
AcDbSymbolTableRecord
100
AcDbLayerTableRecord
  2
BUVE_ELEM_####_####_#
 70
     0
 62
     7
420
 16777215
  6
Continuous
370
     0
390
C01
347
C04
1001
AcAecLayerStandard
1000

1000
Būvju elementi
  0
LAYER
  5
751
330
C18
100
AcDbSymbolTableRecord
100
AcDbLayerTableRecord
  2
GAZE_ELEM_####_####_#
 70
     0
 62
     1
420
 16711680
  6
Continuous
370
    13
390
C01
347
C04
1001
AcAecLayerStandard
1000

1000
Gāzes saimniecības elementi
  0
LAYER
  5
76F
330
C18
100
AcDbSymbolTableRecord
100
AcDbLayerTableRecord
  2
CKOM_ELEM_####_####_#
 70
     0
 62
   252
420
  8882055
  6
Continuous
370
     0
390
C01
347
C04
1001
AcAecLayerStandard
1000

1000
Komunikāciju elementi
  0
LAYER
  5
77E
330
C18
100
AcDbSymbolTableRecord
100
AcDbLayerTableRecord
  2
CKOM_ELEM_####_TKST_#
 70
     0
 62
   252
420
  8882055
  6
Continuous
370
     0
390
C01
347
C04
1001
AcAecLayerStandard
1000

1000
Elementu apraksts un iznesuma līnija
  0
LAYER
  5
784
330
C18
100
AcDbSymbolTableRecord
100
AcDbLayerTableRecord
  2
CELI_ELEM_####_####_#
 70
     0
 62
     2
420
 16776960
  6
Continuous
370
     0
390
C01
347
C04
1001
AcAecLayerStandard
1000

1000
Ceļazīmes un citi informatīvie elementi
  0
LAYER
  5
7B4
330
C18
100
AcDbSymbolTableRecord
100
AcDbLayerTableRecord
  2
CELI_REKL_####_####_#
 70
     0
 62
     2
420
 16776960
  6
Continuous
370
     0
390
C01
347
C04
1001
AcAecLayerStandard
1000

1000
Mērogā attēlota norāde, reklāma
  0
LAYER
  5
7BD
330
C18
100
AcDbSymbolTableRecord
100
AcDbLayerTableRecord
  2
CELI_SEGL_####_####_#
 70
     0
 62
   212
420
 13762770
  6
ADTI_1
370
    13
390
C01
347
C04
1001
AcAecLayerStandard
1000

1000
Seguma atdaloša līnija
  0
LAYER
  5
7CB
330
C18
100
AcDbSymbolTableRecord
100
AcDbLayerTableRecord
  2
BUVE_BDET_####_####_#
 70
     0
 62
   134
420
    38550
  6
Continuous
370
     0
390
C01
347
C04
1001
AcAecLayerStandard
1000

1000
Būvdetaļas
  0
LAYER
  5
806
330
C18
100
AcDbSymbolTableRecord
100
AcDbLayerTableRecord
  2
APGS_DETV_####_####_#
 70
     0
 62
   240
420
 16646238
  6
Continuous
370
     0
390
C01
347
C04
1001
AcAecLayerStandard
1000

1000
Apgaismes tīkla palīglīnija (virszemes detalizācija)
  0
LAYER
  5
80B
330
C18
100
AcDbSymbolTableRecord
100
AcDbLayerTableRecord
  2
APGS_ELEM_####_####_#
 70
     0
 62
   240
420
 16646238
  6
Continuous
370
     0
390
C01
347
C04
1001
AcAecLayerStandard
1000

1000
Apgaismes elementi
  0
LAYER
  5
854
330
C18
100
AcDbSymbolTableRecord
100
AcDbLayerTableRecord
  2
Level 37
 70
     0
 62
     7
  6
Continuous
370
     0
390
C01
347
C04
  0
LAYER
  5
855
330
C18
100
AcDbSymbolTableRecord
100
AcDbLayerTableRecord
  2
ELEK_ELEM_####_####_#
 70
     0
 62
    30
420
 16744192
  6
Continuous
370
    13
390
C01
347
C04
1001
AcAecLayerStandard
1000

1000
Elektrības elementi
  0
LAYER
  5
85B
330
C18
100
AcDbSymbolTableRecord
100
AcDbLayerTableRecord
  2
SAKK_ELEM_####_####_#
 70
     0
 62
     5
420
      255
  6
Continuous
370
    13
390
C01
347
C04
1001
AcAecLayerStandard
1000

1000
Elektronisko sakaru kabeļu elementi
  0
LAYER
  5
86A
330
C18
100
AcDbSymbolTableRecord
100
AcDbLayerTableRecord
  2
SAKK_IZVK_####_TKST_#
 70
     0
 62
     5
420
      255
  6
Continuous
370
     0
390
C01
347
C04
1001
AcAecLayerStandard
1000

1000
Elektronisko sakaru kabeļu kanalizācijas cauruļu (kanālu) izvietojums, un iznesuma līnija
  0
LAYER
  5
880
330
C18
100
AcDbSymbolTableRecord
100
AcDbLayerTableRecord
  2
SAKK_KKAN_####_####_#
 70
     0
 62
     5
420
      255
  6
SAKK_KKAN
370
     0
390
C01
347
C04
1001
AcAecLayerStandard
1000

1000
Elektronisko sakaru kabeļu kanalizācija
  0
LAYER
  5
886
330
C18
100
AcDbSymbolTableRecord
100
AcDbLayerTableRecord
  2
SAKK_KKAN_####_TKST_#
 70
     0
 62
     5
420
      255
  6
Continuous
370
     0
390
C01
347
C04
1001
AcAecLayerStandard
1000

1000
Elektronisko sakaru kabeļu kanalizācijas apraksts un iznesuma līnija
  0
LAYER
  5
88B
330
C18
100
AcDbSymbolTableRecord
100
AcDbLayerTableRecord
  2
SAKK_ELEM_####_TKST_#
 70
     0
 62
     5
420
      255
  6
Continuous
370
     0
390
C01
347
C04
1001
AcAecLayerStandard
1000

1000
Elektronisko sakaru kabeļu kanalizācijas elementu apraksts un iznesuma līnija
  0
LAYER
  5
89E
330
C18
100
AcDbSymbolTableRecord
100
AcDbLayerTableRecord
  2
SAKT_VADP_KABE_####_#
 70
     0
 62
     5
420
      255
  6
SAKT_VADP_KABE
370
     0
390
C01
347
C04
1001
AcAecLayerStandard
1000

1000
Elektronisko sakaru kabelis
  0
LAYER
  5
8A2
330
C18
100
AcDbSymbolTableRecord
100
AcDbLayerTableRecord
  2
RELJ_ELEM_####_####_#
 70
     0
 62
     7
420
 16777215
  6
Continuous
370
    13
390
C01
347
C04
1001
AcAecLayerStandard
1000

1000
Reljefa elementi
  0
LAYER
  5
B1D
330
C18
100
AcDbSymbolTableRecord
100
AcDbLayerTableRecord
  2
LKAN_ELEM_####_####_#
 70
     0
 62
    34
420
  9853952
  6
Continuous
370
    13
390
C01
347
C04
1001
AcAecLayerStandard
1000

1000
Lietus kanalizācijas elementi
  0
LAYER
  5
B35
330
C18
100
AcDbSymbolTableRecord
100
AcDbLayerTableRecord
  2
BUVE_EKAS_####_####_#
 70
     0
 62
     7
420
 16777215
  6
Continuous
370
    13
390
C01
347
C04
1001
AcAecLayerStandard
1000

1000
Ēku līnija
  0
LAYER
  5
BB8
330
C18
100
AcDbSymbolTableRecord
100
AcDbLayerTableRecord
  2
RAMI_PLAN_####_TKST_#
 70
     0
 62
     7
420
 16777215
  6
Continuous
370
     0
390
C01
347
C04
1001
AcAecLayerStandard
1000

1000
Topogrāfiskās un izpilduzmērījumu plāna noformējums
  0
LAYER
  5
BD5
330
C18
100
AcDbSymbolTableRecord
100
AcDbLayerTableRecord
  2
A_segumi_brugis
 70
     0
 62
     7
  6
Continuous
370
     0
390
C01
347
C04
  0
LAYER
  5
BD8
330
C18
100
AcDbSymbolTableRecord
100
AcDbLayerTableRecord
  2
A_segumi_asfalts
 70
     0
 62
     7
  6
Continuous
370
     0
390
C01
347
C04
  0
LAYER
  5
BDC
330
C18
100
AcDbSymbolTableRecord
100
AcDbLayerTableRecord
  2
A_segumi_skembas
 70
     0
 62
     7
  6
Continuous
370
     0
390
C01
347
C04
  0
LAYER
  5
BE1
330
C18
100
AcDbSymbolTableRecord
100
AcDbLayerTableRecord
  2
A_cela_apmale_veca
 70
     0
 62
     7
  6
Continuous
370
     0
390
C01
347
C04
  0
LAYER
  5
BE7
330
C18
100
AcDbSymbolTableRecord
100
AcDbLayerTableRecord
  2
A_cela_apmale_jauna
 70
     0
 62
     7
  6
Continuous
370
     0
390
C01
347
C04
  0
ENDTAB
  0
TABLE
  2
STYLE
  5
C1B
330
0
100
AcDbSymbolTable
 70
     8
  0
STYLE
  5
C1C
330
C1B
100
AcDbSymbolTableRecord
100
AcDbTextStyleTableRecord
  2
Standard
 70
     0
 40
0.0
 41
1.0
 50
0.0
 71
     0
 42
0.25
  3
txt.shx
  4

  0
STYLE
  5
54B
330
C1B
100
AcDbSymbolTableRecord
100
AcDbTextStyleTableRecord
  2
Tahoma_05_LT
 70
     0
 40
0.5
 41
1.0
 50
0.0
 71
     0
 42
0.2
  3
tahoma.ttf
  4

1001
ACAD
1000
Tahoma
1071
    47655
  0
STYLE
  5
695
330
C1B
100
AcDbSymbolTableRecord
100
AcDbTextStyleTableRecord
  2
Tahoma_07_CC
 70
     0
 40
0.7
 41
1.0
 50
0.0
 71
     0
 42
0.2
  3
tahoma.ttf
  4

1001
ACAD
1000
Tahoma
1071
    47655
  0
STYLE
  5
729
330
C1B
100
AcDbSymbolTableRecord
100
AcDbTextStyleTableRecord
  2
Tahoma_05_LB
 70
     0
 40
0.5
 41
1.0
 50
0.0
 71
     0
 42
0.2
  3
tahoma.ttf
  4

1001
ACAD
1000
Tahoma
1071
    47655
  0
STYLE
  5
885
330
C1B
100
AcDbSymbolTableRecord
100
AcDbTextStyleTableRecord
  2
Tahoma_05_CB
 70
     0
 40
0.5
 41
1.0
 50
0.0
 71
     0
 42
0.2
  3
tahoma.ttf
  4

1001
ACAD
1000
Tahoma
1071
    47655
  0
STYLE
  5
BB6
330
C1B
100
AcDbSymbolTableRecord
100
AcDbTextStyleTableRecord
  2
Arial_1_LB
 70
     0
 40
1.0
 41
1.0
 50
0.0
 71
     0
 42
0.2
  3
arial.ttf
  4

1001
ACAD
1000
Arial
1071
    47655
  0
STYLE
  5
C6A
330
C1B
100
AcDbSymbolTableRecord
100
AcDbTextStyleTableRecord
  2

 70
     1
 40
1.0
 41
1.0
 50
0.0
 71
     0
 42
0.2
  3
dgnlstyle.shx
  4

  0
STYLE
  5
C6D
330
C1B
100
AcDbSymbolTableRecord
100
AcDbTextStyleTableRecord
  2
Style-Arial
 70
     0
 40
0.0
 41
1.0
 50
0.0
 71
     0
 42
0.25
  3
arial.ttf
  4

1001
ACAD
1000
Arial
1071
    47655
  0
ENDTAB
  0
TABLE
  2
VIEW
  5
C21
330
0
100
AcDbSymbolTable
 70
     0
  0
ENDTAB
  0
TABLE
  2
UCS
  5
C22
330
0
100
AcDbSymbolTable
 70
     0
  0
ENDTAB
  0
TABLE
  2
APPID
  5
C27
330
0
100
AcDbSymbolTable
 70
     4
  0
APPID
  5
C28
330
C27
100
AcDbSymbolTableRecord
100
AcDbRegAppTableRecord
  2
ACAD
 70
     0
  0
APPID
  5
C17
330
C27
100
AcDbSymbolTableRecord
100
AcDbRegAppTableRecord
  2
ACAD_PSEXT
 70
     0
  0
APPID
  5
C6B
330
C27
100
AcDbSymbolTableRecord
100
AcDbRegAppTableRecord
  2
AcAecLayerStandard
 70
     0
  0
APPID
  5
E77
330
C27
100
AcDbSymbolTableRecord
100
AcDbRegAppTableRecord
  2
ACAD_MLEADERVER
 70
     0
  0
ENDTAB
  0
TABLE
  2
DIMSTYLE
  5
C29
330
0
100
AcDbSymbolTable
 70
     1
100
AcDbDimStyleTable
 71
     1
340
C2A
  0
DIMSTYLE
105
C2A
330
C29
100
AcDbSymbolTableRecord
100
AcDbDimStyleTableRecord
  2
Standard
 70
     0
340
C1C
  0
ENDTAB
  0
TABLE
  2
BLOCK_RECORD
  5
BFD
330
0
100
AcDbSymbolTable
 70
    19
  0
BLOCK_RECORD
  5
BFE
330
BFD
100
AcDbSymbolTableRecord
100
AcDbBlockTableRecord
  2
*Model_Space
340
C0F
 70
     0
280
     1
281
     0
  0
BLOCK_RECORD
  5
C11
330
BFD
100
AcDbSymbolTableRecord
100
AcDbBlockTableRecord
  2
*Paper_Space
340
C14
 70
     0
280
     1
281
     0
  0
BLOCK_RECORD
  5
C6E
330
BFD
100
AcDbSymbolTableRecord
100
AcDbBlockTableRecord
  2
TerminatorOpen_0.5
340
0
 70
     0
280
     1
281
     0
  0
BLOCK_RECORD
  5
C78
330
BFD
100
AcDbSymbolTableRecord
100
AcDbBlockTableRecord
  2
KRUMS
340
0
102
{BLKREFS
331
6A0
331
6A8
331
6B0
331
6B8
331
6C0
331
6C8
331
6D0
331
7CD
331
7D5
102
}
 70
     0
280
     1
281
     0
  0
BLOCK_RECORD
  5
C7B
330
BFD
100
AcDbSymbolTableRecord
100
AcDbBlockTableRecord
  2
EGLE
340
0
102
{BLKREFS
331
6D9
331
6E4
331
6EF
331
6FA
331
705
331
710
331
732
102
}
 70
     0
280
     1
281
     0
  0
BLOCK_RECORD
  5
C7E
330
BFD
100
AcDbSymbolTableRecord
100
AcDbBlockTableRecord
  2
LEGLE
340
0
102
{BLKREFS
331
71C
102
}
 70
     0
280
     1
281
     0
  0
BLOCK_RECORD
  5
C81
330
BFD
100
AcDbSymbolTableRecord
100
AcDbBlockTableRecord
  2
MST
340
0
102
{BLKREFS
331
74A
331
74C
102
}
 70
     0
280
     1
281
     0
  0
BLOCK_RECORD
  5
C84
330
BFD
100
AcDbSymbolTableRecord
100
AcDbBlockTableRecord
  2
GZVENT
340
0
102
{BLKREFS
331
752
331
756
331
75A
102
}
 70
     0
280
     1
281
     0
  0
BLOCK_RECORD
  5
C87
330
BFD
100
AcDbSymbolTableRecord
100
AcDbBlockTableRecord
  2
LAPUKO
340
0
102
{BLKREFS
331
75F
331
7A1
102
}
 70
     0
280
     1
281
     0
  0
BLOCK_RECORD
  5
C8A
330
BFD
100
AcDbSymbolTableRecord
100
AcDbBlockTableRecord
  2
KABST
340
0
102
{BLKREFS
331
770
331
774
331
778
102
}
 70
     0
280
     1
281
     0
  0
BLOCK_RECORD
  5
C8D
330
BFD
100
AcDbSymbolTableRecord
100
AcDbBlockTableRecord
  2
CZIME
340
0
102
{BLKREFS
331
785
331
78C
331
793
331
79A
102
}
 70
     0
280
     1
281
     0
  0
BLOCK_RECORD
  5
C90
330
BFD
100
AcDbSymbolTableRecord
100
AcDbBlockTableRecord
  2
METCAU
340
0
102
{BLKREFS
331
7AF
331
7B1
102
}
 70
     0
280
     1
281
     0
  0
BLOCK_RECORD
  5
C93
330
BFD
100
AcDbSymbolTableRecord
100
AcDbBlockTableRecord
  2
AUGLU
340
0
102
{BLKREFS
331
7DE
331
7EB
331
7F8
102
}
 70
     0
280
     1
281
     0
  0
BLOCK_RECORD
  5
C96
330
BFD
100
AcDbSymbolTableRecord
100
AcDbBlockTableRecord
  2
APGFERM
340
0
102
{BLKREFS
331
80C
102
}
 70
     0
280
     1
281
     0
  0
BLOCK_RECORD
  5
C99
330
BFD
100
AcDbSymbolTableRecord
100
AcDbBlockTableRecord
  2
APLAMPIE
340
0
102
{BLKREFS
331
811
102
}
 70
     0
280
     1
281
     0
  0
BLOCK_RECORD
  5
C9C
330
BFD
100
AcDbSymbolTableRecord
100
AcDbBlockTableRecord
  2
APLAMP
340
0
102
{BLKREFS
331
818
331
B79
102
}
 70
     0
280
     1
281
     0
  0
BLOCK_RECORD
  5
CA0
330
BFD
100
AcDbSymbolTableRecord
100
AcDbBlockTableRecord
  2
CELMS
340
0
102
{BLKREFS
331
847
331
84A
102
}
 70
     0
280
     1
281
     0
  0
BLOCK_RECORD
  5
CA3
330
BFD
100
AcDbSymbolTableRecord
100
AcDbBlockTableRecord
  2
ELSKAP
340
0
102
{BLKREFS
331
856
102
}
 70
     0
280
     1
281
     0
  0
BLOCK_RECORD
  5
CA6
330
BFD
100
AcDbSymbolTableRecord
100
AcDbBlockTableRecord
  2
SKAKA
340
0
102
{BLKREFS
331
85C
331
860
331
864
102
}
 70
     0
280
     1
281
     0
  0
BLOCK_RECORD
  5
CA9
330
BFD
100
AcDbSymbolTableRecord
100
AcDbBlockTableRecord
  2
PKT
340
0
102
{BLKREFS
331
8A3
331
8A5
331
8A7
331
8A9
331
8AB
331
8AD
331
8AF
331
8B1
331
8B3
331
8B5
331
8B7
331
8B9
331
8BB
331
8BD
331
8BF
331
8C1
331
8C3
331
8C5
331
8C7
331
8C9
331
8CB
331
8CD
331
8CF
331
8D1
331
8D3
331
8D5
331
8D7
331
8D9
331
8DB
331
8DD
331
8DF
331
8E1
331
8E3
331
8E5
331
8E7
331
8E9
331
8EB
331
8ED
331
8EF
331
8F1
331
8F3
331
8F5
331
8F7
331
8F9
331
8FB
331
8FD
331
8FF
331
901
331
903
331
905
331
907
331
909
331
90B
331
90D
331
90F
331
911
331
913
331
915
331
917
331
919
331
91B
331
91D
331
91F
331
921
331
923
331
925
331
927
331
929
331
92B
331
92D
331
92F
331
931
331
933
331
935
331
937
331
939
331
93B
331
93D
331
93F
331
941
331
943
331
945
331
947
331
949
331
94B
331
94D
331
94F
331
951
331
953
331
955
331
957
331
959
331
95B
331
95D
331
95F
331
961
331
963
331
965
331
967
331
969
331
96B
331
96D
331
96F
331
971
331
973
331
975
331
977
331
979
331
97B
331
97D
331
97F
331
981
331
983
331
985
331
987
331
989
331
98B
331
98D
331
98F
331
991
331
993
331
995
331
997
331
999
331
99B
331
99D
331
99F
331
9A1
331
9A3
331
9A5
331
9A7
331
9A9
331
9AB
331
9AD
331
9AF
331
9B1
331
9B3
331
9B5
331
9B7
331
9B9
331
9BB
331
9BD
331
9BF
331
9C1
331
9C3
331
9C5
331
9C7
331
9C9
331
9CB
331
9CD
331
9CF
331
9D1
331
9D3
331
9D5
331
9D7
331
9D9
331
9DB
331
9DD
331
9DF
331
9E1
331
9E3
331
9E5
331
9E7
331
9E9
331
9EB
331
9ED
331
9EF
331
9F1
331
9F3
331
9F5
331
9F7
331
9F9
331
9FB
331
9FD
331
9FF
331
A01
331
A03
331
A05
331
A07
331
A09
331
A0B
331
A0D
331
A0F
331
A11
331
A13
331
A15
331
A17
331
A19
331
A1B
331
A1D
331
A1F
331
A21
331
A23
331
A25
331
A27
331
A29
331
A2B
331
A2D
331
A2F
331
A31
331
A33
331
A35
331
A37
331
A39
331
A3B
331
A3D
331
A3F
331
A41
331
A43
331
A45
331
A47
331
A49
331
A4B
331
A4D
331
A4F
331
A51
331
A53
331
A55
331
A57
331
A59
331
A5B
331
A5D
331
A5F
331
A61
331
A63
331
A65
331
A67
331
A69
331
A6B
331
A6D
331
A6F
331
A71
331
A73
331
A75
331
A77
331
A79
331
A7B
331
A7D
331
A7F
331
A81
331
A83
331
A85
331
A87
331
A89
331
A8B
331
A8D
331
A8F
331
A91
331
A93
331
A95
331
A97
331
A99
331
A9B
331
A9D
331
A9F
331
AA1
331
AA3
331
AA5
331
AA7
331
AA9
331
AAB
331
AAD
331
AAF
331
AB1
331
AB3
331
AB5
331
AB7
331
AB9
331
ABB
331
ABD
331
ABF
331
AC1
331
AC3
331
AC5
331
AC7
331
AC9
331
ACB
331
ACD
331
ACF
331
AD1
331
AD3
331
AD5
331
AD7
331
AD9
331
ADB
331
ADD
331
ADF
331
AE1
331
AE3
331
AE5
331
AE7
331
AE9
331
AEB
331
AED
331
AEF
331
AF1
331
AF3
331
AF5
331
AF7
331
AF9
331
AFB
331
AFD
331
AFF
331
B01
331
B03
331
B05
331
B07
331
B09
331
B0B
331
B0D
331
B0F
331
B11
331
B13
331
B15
102
}
 70
     0
280
     1
281
     0
  0
BLOCK_RECORD
  5
CAC
330
BFD
100
AcDbSymbolTableRecord
100
AcDbBlockTableRecord
  2
KGULIJA
340
0
102
{BLKREFS
331
B1E
331
B22
102
}
 70
     0
280
     1
281
     0
  0
ENDTAB
  0
ENDSEC
  0
SECTION
  2
BLOCKS
  0
BLOCK
  5
BFF
330
BFE
100
AcDbEntity
  8
0
100
AcDbBlockBegin
  2
*Model_Space
 70
     0
 10
0.0
 20
0.0
 30
0.0
  3
*Model_Space
  1

  0
ENDBLK
  5
C0E
330
BFE
100
AcDbEntity
  8
0
100
AcDbBlockEnd
  0
BLOCK
  5
C12
330
C11
100
AcDbEntity
 67
     1
  8
0
100
AcDbBlockBegin
  2
*Paper_Space
 70
     0
 10
0.0
 20
0.0
 30
0.0
  3
*Paper_Space
  1

  0
ENDBLK
  5
C13
330
C11
100
AcDbEntity
 67
     1
  8
0
100
AcDbBlockEnd
  0
BLOCK
  5
C72
330
C6E
100
AcDbEntity
  8
0
100
AcDbBlockBegin
  2
TerminatorOpen_0.5
 70
     0
 10
0.0
 20
0.0
 30
0.0
  3
TerminatorOpen_0.5
  1

  0
LINE
  5
C6F
330
C6E
100
AcDbEntity
  8
0
  6
ByBlock
 62
     0
370
    -2
100
AcDbLine
 10
0.0
 20
0.0
 30
0.0
 11
-1.0
 21
0.0
 31
0.0
  0
LINE
  5
C70
330
C6E
100
AcDbEntity
  8
0
  6
ByBlock
 62
     0
370
    -2
100
AcDbLine
 10
0.0
 20
0.0
 30
0.0
 11
-1.0
 21
0.25
 31
0.0
  0
LINE
  5
C71
330
C6E
100
AcDbEntity
  8
0
  6
ByBlock
 62
     0
370
    -2
100
AcDbLine
 10
0.0
 20
0.0
 30
0.0
 11
-1.0
 21
-0.25
 31
0.0
  0
ENDBLK
  5
C73
330
C6E
100
AcDbEntity
  8
0
100
AcDbBlockEnd
  0
BLOCK
  5
C79
330
C78
100
AcDbEntity
  8
0
100
AcDbBlockBegin
  2
KRUMS
 70
     0
 10
0.0
 20
0.0
 30
0.0
  3
KRUMS
  1

  0
CIRCLE
  5
6A1
330
C78
100
AcDbEntity
  8
TERT_ELEM_####_####_#
  6
Continuous
 62
     3
420
    61440
 48
0.933333
370
     0
100
AcDbCircle
 10
0.0
 20
0.0
 30
0.0
 40
0.1280000000000018
  0
CIRCLE
  5
6A2
330
C78
100
AcDbEntity
  8
TERT_ELEM_####_####_#
  6
Continuous
 62
     3
420
    61440
 48
0.933333
370
     0
100
AcDbCircle
 10
0.544
 20
0.63936
 30
0.0
 40
0.0640000000000003
  0
CIRCLE
  5
6A3
330
C78
100
AcDbEntity
  8
TERT_ELEM_####_####_#
  6
Continuous
 62
     3
420
    61440
 48
0.933333
370
     0
100
AcDbCircle
 10
-0.43392
 20
0.0208
 30
0.0
 40
0.0960000000000014
  0
CIRCLE
  5
6A4
330
C78
100
AcDbEntity
  8
TERT_ELEM_####_####_#
  6
Continuous
 62
     3
420
    61440
 48
0.933333
370
     0
100
AcDbCircle
 10
0.27648
 20
-0.46688
 30
0.0
 40
0.0960000000000014
  0
CIRCLE
  5
6A5
330
C78
100
AcDbEntity
  8
TERT_ELEM_####_####_#
  6
Continuous
 62
     3
420
    61440
 48
0.933333
370
     0
100
AcDbCircle
 10
-0.7184
 20
0.03424
 30
0.0
 40
0.0640000000000003
  0
CIRCLE
  5
6A6
330
C78
100
AcDbEntity
  8
TERT_ELEM_####_####_#
  6
Continuous
 62
     3
420
    61440
 48
0.933333
370
     0
100
AcDbCircle
 10
0.43392
 20
-0.75616
 30
0.0
 40
0.0640000000000003
  0
CIRCLE
  5
6A7
330
C78
100
AcDbEntity
  8
TERT_ELEM_####_####_#
  6
Continuous
 62
     3
420
    61440
 48
0.933333
370
     0
100
AcDbCircle
 10
0.34752
 20
0.40768
 30
0.0
 40
0.0960000000000014
  0
ENDBLK
  5
C7A
330
C78
100
AcDbEntity
  8
0
100
AcDbBlockEnd
  0
BLOCK
  5
C7C
330
C7B
100
AcDbEntity
  8
0
100
AcDbBlockBegin
  2
EGLE
 70
     0
 10
0.0
 20
0.0
 30
0.0
  3
EGLE
  1

  0
LINE
  5
6DA
330
C7B
100
AcDbEntity
  8
TERT_ELEM_####_####_#
  6
Continuous
 62
    92
420
    57600
 48
0.933333
370
     0
100
AcDbLine
 10
0.0
 20
0.0
 30
0.0
 11
0.2
 21
0.0
 31
0.0
  0
LINE
  5
6DB
330
C7B
100
AcDbEntity
  8
TERT_ELEM_####_####_#
  6
Continuous
 62
    92
420
    57600
 48
0.933333
370
     0
100
AcDbLine
 10
0.0
 20
1.25
 30
0.0
 11
0.174
 21
1.122
 31
0.0
  0
LINE
  5
6DC
330
C7B
100
AcDbEntity
  8
TERT_ELEM_####_####_#
  6
Continuous
 62
    92
420
    57600
 48
0.933333
370
     0
100
AcDbLine
 10
0.0
 20
0.75
 30
0.0
 11
0.278
 21
0.546
 31
0.0
  0
LINE
  5
6DD
330
C7B
100
AcDbEntity
  8
TERT_ELEM_####_####_#
  6
Continuous
 62
    92
420
    57600
 48
0.933333
370
     0
100
AcDbLine
 10
0.0
 20
0.5
 30
0.0
 11
0.334
 21
0.256
 31
0.0
  0
LINE
  5
6DE
330
C7B
100
AcDbEntity
  8
TERT_ELEM_####_####_#
  6
Continuous
 62
    92
420
    57600
 48
0.933333
370
     0
100
AcDbLine
 10
0.0
 20
0.5
 30
0.0
 11
-0.332
 21
0.256
 31
0.0
  0
LINE
  5
6DF
330
C7B
100
AcDbEntity
  8
TERT_ELEM_####_####_#
  6
Continuous
 62
    92
420
    57600
 48
0.933333
370
     0
100
AcDbLine
 10
0.0
 20
0.75
 30
0.0
 11
-0.278
 21
0.546
 31
0.0
  0
LINE
  5
6E0
330
C7B
100
AcDbEntity
  8
TERT_ELEM_####_####_#
  6
Continuous
 62
    92
420
    57600
 48
0.933333
370
     0
100
AcDbLine
 10
0.0
 20
1.25
 30
0.0
 11
-0.176
 21
1.122
 31
0.0
  0
LINE
  5
6E1
330
C7B
100
AcDbEntity
  8
TERT_ELEM_####_####_#
  6
Continuous
 62
    92
420
    57600
 48
0.933333
370
     0
100
AcDbLine
 10
0.0
 20
1.5
 30
0.0
 11
0.0
 21
0.0
 31
0.0
  0
LINE
  5
6E2
330
C7B
100
AcDbEntity
  8
TERT_ELEM_####_####_#
  6
Continuous
 62
    92
420
    57600
 48
0.933333
370
     0
100
AcDbLine
 10
0.0
 20
1.0
 30
0.0
 11
0.216
 21
0.842
 31
0.0
  0
LINE
  5
6E3
330
C7B
100
AcDbEntity
  8
TERT_ELEM_####_####_#
  6
Continuous
 62
    92
420
    57600
 48
0.933333
370
     0
100
AcDbLine
 10
0.0
 20
1.0
 30
0.0
 11
-0.216
 21
0.842
 31
0.0
  0
ENDBLK
  5
C7D
330
C7B
100
AcDbEntity
  8
0
100
AcDbBlockEnd
  0
BLOCK
  5
C7F
330
C7E
100
AcDbEntity
  8
0
100
AcDbBlockBegin
  2
LEGLE
 70
     0
 10
0.0
 20
0.0
 30
0.0
  3
LEGLE
  1

  0
LINE
  5
71D
330
C7E
100
AcDbEntity
  8
TERT_ELEM_####_####_#
  6
Continuous
 62
    92
420
    57600
 48
0.933333
370
     0
100
AcDbLine
 10
0.0
 20
0.0
 30
0.0
 11
0.2
 21
0.0
 31
0.0
  0
LINE
  5
71E
330
C7E
100
AcDbEntity
  8
TERT_ELEM_####_####_#
  6
Continuous
 62
    92
420
    57600
 48
0.933333
370
     0
100
AcDbLine
 10
0.0
 20
1.124
 30
0.0
 11
0.164
 21
1.124
 31
0.0
  0
LINE
  5
71F
330
C7E
100
AcDbEntity
  8
TERT_ELEM_####_####_#
  6
Continuous
 62
    92
420
    57600
 48
0.933333
370
     0
100
AcDbLine
 10
0.0
 20
0.624
 30
0.0
 11
0.356
 21
0.624
 31
0.0
  0
LINE
  5
720
330
C7E
100
AcDbEntity
  8
TERT_ELEM_####_####_#
  6
Continuous
 62
    92
420
    57600
 48
0.933333
370
     0
100
AcDbLine
 10
0.0
 20
0.874
 30
0.0
 11
0.23
 21
0.874
 31
0.0
  0
LINE
  5
721
330
C7E
100
AcDbEntity
  8
TERT_ELEM_####_####_#
  6
Continuous
 62
    92
420
    57600
 48
0.933333
370
     0
100
AcDbLine
 10
0.0
 20
1.5
 30
0.0
 11
0.0
 21
0.0
 31
0.0
  0
LINE
  5
722
330
C7E
100
AcDbEntity
  8
TERT_ELEM_####_####_#
  6
Continuous
 62
    92
420
    57600
 48
0.933333
370
     0
100
AcDbLine
 10
0.0
 20
0.378
 30
0.0
 11
0.164
 21
0.378
 31
0.0
  0
LINE
  5
723
330
C7E
100
AcDbEntity
  8
TERT_ELEM_####_####_#
  6
Continuous
 62
    92
420
    57600
 48
0.933333
370
     0
100
AcDbLine
 10
-0.164
 20
1.124
 30
0.0
 11
0.0
 21
1.124
 31
0.0
  0
LINE
  5
724
330
C7E
100
AcDbEntity
  8
TERT_ELEM_####_####_#
  6
Continuous
 62
    92
420
    57600
 48
0.933333
370
     0
100
AcDbLine
 10
-0.23
 20
0.874
 30
0.0
 11
0.0
 21
0.874
 31
0.0
  0
LINE
  5
725
330
C7E
100
AcDbEntity
  8
TERT_ELEM_####_####_#
  6
Continuous
 62
    92
420
    57600
 48
0.933333
370
     0
100
AcDbLine
 10
-0.356
 20
0.624
 30
0.0
 11
0.0
 21
0.624
 31
0.0
  0
LINE
  5
726
330
C7E
100
AcDbEntity
  8
TERT_ELEM_####_####_#
  6
Continuous
 62
    92
420
    57600
 48
0.933333
370
     0
100
AcDbLine
 10
-0.164
 20
0.378
 30
0.0
 11
0.0
 21
0.378
 31
0.0
  0
ENDBLK
  5
C80
330
C7E
100
AcDbEntity
  8
0
100
AcDbBlockEnd
  0
BLOCK
  5
C82
330
C81
100
AcDbEntity
  8
0
100
AcDbBlockBegin
  2
MST
 70
     0
 10
0.0
 20
0.0
 30
0.0
  3
MST
  1

  0
HATCH
  5
74B
330
C81
100
AcDbEntity
  8
BUVE_ELEM_####_####_#
  6
Continuous
 62
     7
420
 16777215
 48
0.933333
370
    13
100
AcDbHatch
 10
0.0
 20
0.0
 30
0.0
210
0.0
220
0.0
230
1.0
  2
SOLID
 70
     1
 71
     0
 91
        1
 92
        1
 93
        1
 72
     2
 10
0.0
 20
0.0
 40
0.25
 50
0.0
 51
360.0
 73
     1
 97
        0
 75
     0
 76
     1
 98
        1
 10
0.0
 20
0.0
450
        0
451
        0
460
0.0
461
0.0
452
        0
462
0.0
453
        0
470

  0
ENDBLK
  5
C83
330
C81
100
AcDbEntity
  8
0
100
AcDbBlockEnd
  0
BLOCK
  5
C85
330
C84
100
AcDbEntity
  8
0
100
AcDbBlockBegin
  2
GZVENT
 70
     0
 10
0.0
 20
0.0
 30
0.0
  3
GZVENT
  1

  0
CIRCLE
  5
753
330
C84
100
AcDbEntity
  8
GAZE_ELEM_####_####_#
  6
Continuous
 62
     1
420
 16711680
 48
0.933333
370
    13
100
AcDbCircle
 10
0.0
 20
0.0
 30
0.0
 40
0.35
  0
ARC
  5
754
330
C84
100
AcDbEntity
  8
GAZE_ELEM_####_####_#
  6
Continuous
 62
     1
420
 16711680
 48
0.933333
370
    13
100
AcDbCircle
 10
-0.14
 20
0.0
 30
0.0
 40
0.14
100
AcDbArc
 50
0.0
 51
180.0
  0
ARC
  5
755
330
C84
100
AcDbEntity
  8
GAZE_ELEM_####_####_#
  6
Continuous
 62
     1
420
 16711680
 48
0.933333
370
    13
100
AcDbCircle
 10
0.14
 20
0.0
 30
0.0
 40
0.14
100
AcDbArc
 50
180.0
 51
0.0
  0
ENDBLK
  5
C86
330
C84
100
AcDbEntity
  8
0
100
AcDbBlockEnd
  0
BLOCK
  5
C88
330
C87
100
AcDbEntity
  8
0
100
AcDbBlockBegin
  2
LAPUKO
 70
     0
 10
0.0
 20
0.0
 30
0.0
  3
LAPUKO
  1

  0
ELLIPSE
  5
760
330
C87
100
AcDbEntity
  8
TERT_ELEM_####_####_#
  6
Continuous
 62
    92
420
    57600
 48
0.933333
370
     0
100
AcDbEllipse
 10
-0.089558
 20
0.592914
 30
0.0
 11
0.3068173883848489
 21
0.0951133899296168
 31
0.0
210
0.0
220
0.0
230
1.0
 40
0.8144450187643254
 41
1.570796326794896
 42
4.752014655570658
  0
ELLIPSE
  5
761
330
C87
100
AcDbEntity
  8
TERT_ELEM_####_####_#
  6
Continuous
 62
    92
420
    57600
 48
0.933333
370
     0
100
AcDbEllipse
 10
-0.128291
 20
1.055203
 30
0.0
 11
-0.0387323139092832
 21
-0.212403009427218
 31
0.0
210
0.0
220
0.0
230
-1.0
 40
0.8613228459795687
 41
0.0
 42
3.141592653589792
  0
ELLIPSE
  5
762
330
C87
100
AcDbEntity
  8
TERT_ELEM_####_####_#
  6
Continuous
 62
    92
420
    57600
 48
0.933333
370
     0
100
AcDbEllipse
 10
0.0004
 20
1.350068
 30
0.0
 11
0.0
 21
-0.1499315361192787
 31
0.0
210
0.0
220
0.0
230
-1.0
 40
0.7071067811865476
 41
0.9957007389518786
 42
3.137815539116433
  0
LINE
  5
763
330
C87
100
AcDbEntity
  8
TERT_ELEM_####_####_#
  6
Continuous
 62
    92
420
    57600
 48
0.933333
370
     0
100
AcDbLine
 10
0.0
 20
0.0
 30
0.0
 11
0.2
 21
0.0
 31
0.0
  0
HATCH
  5
764
330
C87
100
AcDbEntity
  8
TERT_ELEM_####_####_#
  6
Continuous
 62
    92
420
    57600
 48
0.933333
370
     0
100
AcDbHatch
 10
0.0
 20
0.0
 30
0.0
210
0.0
220
0.0
230
1.0
  2
SOLID
 70
     1
 71
     0
 91
        1
 92
        1
 93
        5
 72
     1
 10
0.0
 20
1.499998897779732
 11
0.0
 21
0.3469923851080239
 72
     3
 10
0.089558482170105
 20
0.5929141737287864
 11
-0.3068173883848491
 21
0.0951133899296169
 40
0.8144450187643254
 50
87.21309453052583
 51
270.0
 73
     1
 72
     3
 10
0.1282907956046984
 20
1.055203076743054
 11
0.0387323139092832
 21
-0.212403009427218
 40
0.8613228459795687
 50
0.0
 51
180.0
 73
     1
 72
     1
 10
0.0895584817044437
 20
1.267606086214073
 11
0.0885632075369358
 21
1.268518418946769
 72
     3
 10
-0.0004004396032542
 20
1.350068431114777
 11
0.0
 21
-0.1499315361192787
 40
0.7071067811865476
 50
47.48955212441514
 51
179.8469727356613
 73
     1
 97
        0
 75
     0
 76
     1
 98
        1
 10
0.0
 20
0.0
450
        0
451
        0
460
0.0
461
0.0
452
        0
462
0.0
453
        0
470

  0
LINE
  5
76A
330
C87
100
AcDbEntity
  8
TERT_ELEM_####_####_#
  6
Continuous
 62
    92
420
    57600
 48
0.933333
370
     0
100
AcDbLine
 10
0.0
 20
0.346992
 30
0.0
 11
0.0
 21
0.0
 31
0.0
  0
ENDBLK
  5
C89
330
C87
100
AcDbEntity
  8
0
100
AcDbBlockEnd
  0
BLOCK
  5
C8B
330
C8A
100
AcDbEntity
  8
0
100
AcDbBlockBegin
  2
KABST
 70
     0
 10
0.0
 20
0.0
 30
0.0
  3
KABST
  1

  0
LWPOLYLINE
  5
771
330
C8A
100
AcDbEntity
  8
CKOM_ELEM_####_####_#
  6
Continuous
 62
     7
420
 16777215
 48
0.933333
370
     0
100
AcDbPolyline
 90
        5
 70
     0
 43
0.0
 10
0.272
 20
1.461556
 10
0.023
 20
0.898556
 10
0.359
 20
0.898556
 10
0.023
 20
0.299556
 10
0.001
 20
0.569556
  0
LINE
  5
772
330
C8A
100
AcDbEntity
  8
CKOM_ELEM_####_####_#
  6
Continuous
 62
     7
420
 16777215
 48
0.933333
370
     0
100
AcDbLine
 10
0.023
 20
0.299556
 30
0.0
 11
0.264
 21
0.438556
 31
0.0
  0
LWPOLYLINE
  5
773
330
C8A
100
AcDbEntity
  8
CKOM_ELEM_####_####_#
  6
Continuous
 62
     7
420
 16777215
 48
0.933333
370
     0
100
AcDbPolyline
 90
        7
 70
     1
 43
0.0
 10
-0.133
 20
-0.230444
 10
0.133
 20
-0.230444
 10
0.266
 20
-0.000444
 10
0.133
 20
0.230556
 10
-0.133
 20
0.230556
 10
-0.266
 20
-0.000444
 10
-0.133
 20
-0.230444
  0
ENDBLK
  5
C8C
330
C8A
100
AcDbEntity
  8
0
100
AcDbBlockEnd
  0
BLOCK
  5
C8E
330
C8D
100
AcDbEntity
  8
0
100
AcDbBlockBegin
  2
CZIME
 70
     0
 10
0.0
 20
0.0
 30
0.0
  3
CZIME
  1

  0
LINE
  5
786
330
C8D
100
AcDbEntity
  8
CELI_ELEM_####_####_#
  6
Continuous
 62
     2
420
 16776960
 48
0.933333
370
     0
100
AcDbLine
 10
0.246
 20
1.847
 30
0.0
 11
-0.254
 21
1.847
 31
0.0
  0
LINE
  5
787
330
C8D
100
AcDbEntity
  8
CELI_ELEM_####_####_#
  6
Continuous
 62
     2
420
 16776960
 48
0.933333
370
     0
100
AcDbLine
 10
0.246
 20
0.878
 30
0.0
 11
0.246
 21
1.847
 31
0.0
  0
LINE
  5
788
330
C8D
100
AcDbEntity
  8
CELI_ELEM_####_####_#
  6
Continuous
 62
     2
420
 16776960
 48
0.933333
370
     0
100
AcDbLine
 10
0.246
 20
0.878
 30
0.0
 11
-0.254
 21
0.878
 31
0.0
  0
LINE
  5
789
330
C8D
100
AcDbEntity
  8
CELI_ELEM_####_####_#
  6
Continuous
 62
     2
420
 16776960
 48
0.933333
370
     0
100
AcDbLine
 10
-0.254
 20
0.878
 30
0.0
 11
-0.254
 21
1.847
 31
0.0
  0
LINE
  5
78A
330
C8D
100
AcDbEntity
  8
CELI_ELEM_####_####_#
  6
Continuous
 62
     2
420
 16776960
 48
0.933333
370
     0
100
AcDbLine
 10
0.0
 20
0.878
 30
0.0
 11
0.0
 21
0.0
 31
0.0
  0
LINE
  5
78B
330
C8D
100
AcDbEntity
  8
CELI_ELEM_####_####_#
  6
Continuous
 62
     2
420
 16776960
 48
0.933333
370
     0
100
AcDbLine
 10
0.0
 20
0.0
 30
0.0
 11
0.315
 21
0.0
 31
0.0
  0
ENDBLK
  5
C8F
330
C8D
100
AcDbEntity
  8
0
100
AcDbBlockEnd
  0
BLOCK
  5
C91
330
C90
100
AcDbEntity
  8
0
100
AcDbBlockBegin
  2
METCAU
 70
     0
 10
0.0
 20
0.0
 30
0.0
  3
METCAU
  1

  0
HATCH
  5
7B0
330
C90
100
AcDbEntity
  8
BUVE_ELEM_####_####_#
  6
Continuous
 62
     7
420
 16777215
 48
0.933333
370
    13
100
AcDbHatch
 10
0.0
 20
0.0
 30
0.0
210
0.0
220
0.0
230
1.0
  2
SOLID
 70
     1
 71
     0
 91
        1
 92
        1
 93
        1
 72
     2
 10
0.0
 20
0.0
 40
0.1482733961302566
 50
0.0
 51
360.0
 73
     1
 97
        0
 75
     0
 76
     1
 98
        1
 10
0.0
 20
0.0
450
        0
451
        0
460
0.0
461
0.0
452
        0
462
0.0
453
        0
470

  0
ENDBLK
  5
C92
330
C90
100
AcDbEntity
  8
0
100
AcDbBlockEnd
  0
BLOCK
  5
C94
330
C93
100
AcDbEntity
  8
0
100
AcDbBlockBegin
  2
AUGLU
 70
     0
 10
0.0
 20
0.0
 30
0.0
  3
AUGLU
  1

  0
LINE
  5
7DF
330
C93
100
AcDbEntity
  8
TERT_ELEM_####_####_#
  6
Continuous
 62
    92
420
    57600
 48
0.933333
370
     0
100
AcDbLine
 10
0.0
 20
0.0
 30
0.0
 11
0.2
 21
0.0
 31
0.0
  0
LINE
  5
7E0
330
C93
100
AcDbEntity
  8
TERT_ELEM_####_####_#
  6
Continuous
 62
    92
420
    57600
 48
0.933333
370
     0
100
AcDbLine
 10
0.0
 20
0.352
 30
0.0
 11
0.0
 21
0.0
 31
0.0
  0
LWPOLYLINE
  5
7E1
330
C93
100
AcDbEntity
  8
TERT_ELEM_####_####_#
  6
Continuous
 62
    92
420
    57600
 48
0.933333
370
     0
100
AcDbPolyline
 90
        5
 70
   128
 43
0.0
 10
0.0
 20
1.5
 42
-0.075753
 10
-0.06
 20
1.382
 42
0.00657
 10
-0.26
 20
1.046
 42
0.123479
 10
-0.366
 20
0.626
 42
0.488836
 10
0.0
 20
0.352
  0
LWPOLYLINE
  5
7E6
330
C93
100
AcDbEntity
  8
TERT_ELEM_####_####_#
  6
Continuous
 62
    92
420
    57600
 48
0.933333
370
     0
100
AcDbPolyline
 90
        5
 70
   128
 43
0.0
 10
0.0
 20
1.5
 42
0.075753
 10
0.06
 20
1.382
 42
-0.00657
 10
0.26
 20
1.046
 42
-0.123479
 10
0.366
 20
0.626
 42
-0.488836
 10
0.0
 20
0.352
  0
ENDBLK
  5
C95
330
C93
100
AcDbEntity
  8
0
100
AcDbBlockEnd
  0
BLOCK
  5
C97
330
C96
100
AcDbEntity
  8
0
100
AcDbBlockBegin
  2
APGFERM
 70
     0
 10
0.0
 20
0.0
 30
0.0
  3
APGFERM
  1

  0
LINE
  5
80D
330
C96
100
AcDbEntity
  8
APGS_ELEM_####_####_#
  6
Continuous
 62
   240
420
 16646238
 48
0.933333
370
     0
100
AcDbLine
 10
-0.25
 20
-0.25
 30
0.0
 11
0.25
 21
0.25
 31
0.0
  0
LINE
  5
80E
330
C96
100
AcDbEntity
  8
APGS_ELEM_####_####_#
  6
Continuous
 62
   240
420
 16646238
 48
0.933333
370
     0
100
AcDbLine
 10
0.25
 20
-0.25
 30
0.0
 11
-0.25
 21
0.25
 31
0.0
  0
LWPOLYLINE
  5
80F
330
C96
100
AcDbEntity
  8
APGS_ELEM_####_####_#
  6
Continuous
 62
   240
420
 16646238
 48
0.933333
370
     0
100
AcDbPolyline
 90
        5
 70
     1
 43
0.0
 10
-0.25
 20
0.25
 10
0.25
 20
0.25
 10
0.25
 20
-0.25
 10
-0.25
 20
-0.25
 10
-0.25
 20
0.25
  0
ENDBLK
  5
C98
330
C96
100
AcDbEntity
  8
0
100
AcDbBlockEnd
  0
BLOCK
  5
C9A
330
C99
100
AcDbEntity
  8
0
100
AcDbBlockBegin
  2
APLAMPIE
 70
     0
 10
0.0
 20
0.0
 30
0.0
  3
APLAMPIE
  1

  0
LINE
  5
812
330
C99
100
AcDbEntity
  8
APGS_ELEM_####_####_#
  6
Continuous
 62
   240
420
 16646238
 48
0.933333
370
     0
100
AcDbLine
 10
-0.105
 20
-0.1
 30
0.0
 11
-0.105
 21
-0.492
 31
0.0
  0
LINE
  5
813
330
C99
100
AcDbEntity
  8
APGS_ELEM_####_####_#
  6
Continuous
 62
   240
420
 16646238
 48
0.933333
370
     0
100
AcDbLine
 10
0.105
 20
-0.1
 30
0.0
 11
0.105
 21
-0.492
 31
0.0
  0
ELLIPSE
  5
814
330
C99
100
AcDbEntity
  8
APGS_ELEM_####_####_#
  6
Continuous
 62
   240
420
 16646238
 48
0.933333
370
     0
100
AcDbEllipse
 10
0.0
 20
-0.492
 30
0.0
 11
0.0
 21
-0.1508683379660174
 31
0.0
210
0.0
220
0.0
230
-1.0
 40
0.6959710792575372
 41
4.712388980384688
 42
7.853981633974482
  0
LINE
  5
815
330
C99
100
AcDbEntity
  8
APGS_ELEM_####_####_#
  6
Continuous
 62
   240
420
 16646238
 48
0.933333
370
     0
100
AcDbLine
 10
-0.24
 20
-0.1
 30
0.0
 11
0.24
 21
-0.1
 31
0.0
  0
LINE
  5
816
330
C99
100
AcDbEntity
  8
APGS_ELEM_####_####_#
  6
Continuous
 62
   240
420
 16646238
 48
0.933333
370
     0
100
AcDbLine
 10
0.0
 20
0.0
 30
0.0
 11
0.0
 21
-0.1
 31
0.0
  0
ENDBLK
  5
C9B
330
C99
100
AcDbEntity
  8
0
100
AcDbBlockEnd
  0
BLOCK
  5
C9D
330
C9C
100
AcDbEntity
  8
0
100
AcDbBlockBegin
  2
APLAMP
 70
     0
 10
0.0
 20
0.0
 30
0.0
  3
APLAMP
  1

  0
LINE
  5
819
330
C9C
100
AcDbEntity
  8
APGS_ELEM_####_####_#
  6
Continuous
 62
   240
420
 16646238
 48
0.933333
370
     0
100
AcDbLine
 10
0.0
 20
1.666545
 30
0.0
 11
-0.635
 21
1.661545
 31
0.0
  0
LINE
  5
81A
330
C9C
100
AcDbEntity
  8
APGS_ELEM_####_####_#
  6
Continuous
 62
   240
420
 16646238
 48
0.933333
370
     0
100
AcDbLine
 10
-0.5
 20
1.662545
 30
0.0
 11
-0.5
 21
1.270545
 31
0.0
  0
LINE
  5
81B
330
C9C
100
AcDbEntity
  8
APGS_ELEM_####_####_#
  6
Continuous
 62
   240
420
 16646238
 48
0.933333
370
     0
100
AcDbLine
 10
-0.29
 20
1.664545
 30
0.0
 11
-0.29
 21
1.270545
 31
0.0
  0
ELLIPSE
  5
81C
330
C9C
100
AcDbEntity
  8
APGS_ELEM_####_####_#
  6
Continuous
 62
   240
420
 16646238
 48
0.933333
370
     0
100
AcDbEllipse
 10
-0.395
 20
1.270545
 30
0.0
 11
0.0
 21
-0.1508683379660174
 31
0.0
210
0.0
220
0.0
230
-1.0
 40
0.6959710792575372
 41
4.712388980384688
 42
7.853981633974482
  0
LINE
  5
81D
330
C9C
100
AcDbEntity
  8
APGS_ELEM_####_####_#
  6
Continuous
 62
   240
420
 16646238
 48
0.933333
370
     0
100
AcDbLine
 10
0.0
 20
0.0
 30
0.0
 11
0.0
 21
1.882545
 31
0.0
  0
CIRCLE
  5
81E
330
C9C
100
AcDbEntity
  8
APGS_ELEM_####_####_#
  6
Continuous
 62
   240
420
 16646238
 48
0.933333
370
     0
100
AcDbCircle
 10
0.0
 20
0.0
 30
0.0
 40
0.09
  0
ENDBLK
  5
C9E
330
C9C
100
AcDbEntity
  8
0
100
AcDbBlockEnd
  0
BLOCK
  5
CA1
330
CA0
100
AcDbEntity
  8
0
100
AcDbBlockBegin
  2
CELMS
 70
     0
 10
0.0
 20
0.0
 30
0.0
  3
CELMS
  1

  0
LINE
  5
848
330
CA0
100
AcDbEntity
  8
TERT_ELEM_####_####_#
  6
Continuous
 62
    92
420
    57600
 48
0.7
370
     0
100
AcDbLine
 10
0.0
 20
0.8
 30
0.0
 11
0.0
 21
0.0
 31
0.0
  0
LINE
  5
849
330
CA0
100
AcDbEntity
  8
TERT_ELEM_####_####_#
  6
Continuous
 62
    92
420
    57600
 48
0.7
370
     0
100
AcDbLine
 10
0.0
 20
0.0
 30
0.0
 11
0.8
 21
0.0
 31
0.0
  0
ENDBLK
  5
CA2
330
CA0
100
AcDbEntity
  8
0
100
AcDbBlockEnd
  0
BLOCK
  5
CA4
330
CA3
100
AcDbEntity
  8
0
100
AcDbBlockBegin
  2
ELSKAP
 70
     0
 10
0.0
 20
0.0
 30
0.0
  3
ELSKAP
  1

  0
SOLID
  5
857
330
CA3
100
AcDbEntity
  8
ELEK_ELEM_####_####_#
  6
Continuous
 62
    56
420
  8881920
 48
0.933333
370
     0
100
AcDbTrace
 10
-0.6
 20
0.225
 30
0.0
 11
0.6
 21
0.225
 31
0.0
 12
-0.6
 22
-0.225
 32
0.0
 13
0.6
 23
-0.225
 33
0.0
  0
ENDBLK
  5
CA5
330
CA3
100
AcDbEntity
  8
0
100
AcDbBlockEnd
  0
BLOCK
  5
CA7
330
CA6
100
AcDbEntity
  8
0
100
AcDbBlockBegin
  2
SKAKA
 70
     0
 10
0.0
 20
0.0
 30
0.0
  3
SKAKA
  1

  0
CIRCLE
  5
85D
330
CA6
100
AcDbEntity
  8
SAKK_ELEM_####_####_#
  6
Continuous
 62
     5
420
      255
 48
0.933333
370
    13
100
AcDbCircle
 10
0.0
 20
0.0
 30
0.0
 40
0.5
  0
LWPOLYLINE
  5
85E
330
CA6
100
AcDbEntity
  8
SAKK_ELEM_####_####_#
  6
Continuous
 62
     5
420
      255
 48
0.933333
370
    13
100
AcDbPolyline
 90
        3
 70
     0
 43
0.0
 10
0.0
 20
0.5
 10
0.0
 20
0.0
 10
-0.353553
 20
-0.353553
  0
LINE
  5
85F
330
CA6
100
AcDbEntity
  8
SAKK_ELEM_####_####_#
  6
Continuous
 62
     5
420
      255
 48
0.933333
370
    13
100
AcDbLine
 10
0.0
 20
0.0
 30
0.0
 11
0.353553
 21
-0.353553
 31
0.0
  0
ENDBLK
  5
CA8
330
CA6
100
AcDbEntity
  8
0
100
AcDbBlockEnd
  0
BLOCK
  5
CAA
330
CA9
100
AcDbEntity
  8
0
100
AcDbBlockBegin
  2
PKT
 70
     0
 10
0.0
 20
0.0
 30
0.0
  3
PKT
  1

  0
CIRCLE
  5
8A4
330
CA9
100
AcDbEntity
  8
RELJ_ELEM_####_####_#
  6
Continuous
 62
     7
420
 16777215
 48
0.7
370
    13
100
AcDbCircle
 10
0.0
 20
0.0
 30
0.0
 40
0.05
  0
ENDBLK
  5
CAB
330
CA9
100
AcDbEntity
  8
0
100
AcDbBlockEnd
  0
BLOCK
  5
CAD
330
CAC
100
AcDbEntity
  8
0
100
AcDbBlockBegin
  2
KGULIJA
 70
     0
 10
0.0
 20
0.0
 30
0.0
  3
KGULIJA
  1

  0
LINE
  5
B1F
330
CAC
100
AcDbEntity
  8
LKAN_ELEM_####_####_#
  6
Continuous
 62
    34
420
  9853952
 48
0.933333
370
    13
100
AcDbLine
 10
-0.112501
 20
0.337507
 30
0.0
 11
-0.112501
 21
-0.337493
 31
0.0
  0
LINE
  5
B20
330
CAC
100
AcDbEntity
  8
LKAN_ELEM_####_####_#
  6
Continuous
 62
    34
420
  9853952
 48
0.933333
370
    13
100
AcDbLine
 10
0.112499
 20
0.337507
 30
0.0
 11
0.112499
 21
-0.337493
 31
0.0
  0
LWPOLYLINE
  5
B21
330
CAC
100
AcDbEntity
  8
LKAN_ELEM_####_####_#
  6
Continuous
 62
    34
420
  9853952
 48
0.933333
370
    13
100
AcDbPolyline
 90
        5
 70
     1
 43
0.0
 10
-0.337501
 20
0.337507
 10
0.337499
 20
0.337507
 10
0.337499
 20
-0.337493
 10
-0.337501
 20
-0.337493
 10
-0.337501
 20
0.337507
  0
ENDBLK
  5
CAE
330
CAC
100
AcDbEntity
  8
0
100
AcDbBlockEnd
  0
ENDSEC
  0
SECTION
  2
ENTITIES
  0
TEXT
  5
544
330
BFE
100
AcDbEntity
  8
GEOD_ELEM_####_TKST_#
100
AcDbText
 10
552694.101
 20
335195.032
 30
0.0
 40
0.25
  1
 98.28
100
AcDbText
  0
TEXT
  5
545
330
BFE
100
AcDbEntity
  8
GEOD_ELEM_####_TKST_#
100
AcDbText
 10
552644.584
 20
335219.553
 30
0.0
 40
0.25
  1
 97.92
100
AcDbText
  0
TEXT
  5
546
330
BFE
100
AcDbEntity
  8
GEOD_ELEM_####_TKST_#
100
AcDbText
 10
552544.22
 20
335299.102
 30
0.0
 40
0.25
  1
 97.63
100
AcDbText
  0
MTEXT
  5
54D
330
BFE
100
AcDbEntity
  8
RELJ_AATZ_####_TKST_#
100
AcDbMText
 10
552663.999
 20
335240.852
 30
0.0
 40
0.5
 41
0.0
 46
0.0
 71
     1
 72
     1
  1
 97.36
  7
Tahoma_05_LT
 73
     2
 44
0.6
  0
MTEXT
  5
54E
330
BFE
100
AcDbEntity
  8
RELJ_AATZ_####_TKST_#
100
AcDbMText
 10
552653.149
 20
335222.983
 30
0.0
 40
0.5
 41
0.0
 46
0.0
 71
     1
 72
     1
  1
 97.59
  7
Tahoma_05_LT
 73
     2
 44
0.6
  0
MTEXT
  5
54F
330
BFE
100
AcDbEntity
  8
RELJ_AATZ_####_TKST_#
100
AcDbMText
 10
552653.238
 20
335222.753
 30
0.0
 40
0.5
 41
0.0
 46
0.0
 71
     1
 72
     1
  1
 97.73
  7
Tahoma_05_LT
 73
     2
 44
0.6
  0
MTEXT
  5
550
330
BFE
100
AcDbEntity
  8
RELJ_AATZ_####_TKST_#
100
AcDbMText
 10
552652.976
 20
335221.387
 30
0.0
 40
0.5
 41
0.0
 46
0.0
 71
     1
 72
     1
  1
 97.64
  7
Tahoma_05_LT
 73
     2
 44
0.6
  0
MTEXT
  5
551
330
BFE
100
AcDbEntity
  8
RELJ_AATZ_####_TKST_#
100
AcDbMText
 10
552652.796
 20
335219.364
 30
0.0
 40
0.5
 41
0.0
 46
0.0
 71
     1
 72
     1
  1
 97.69
  7
Tahoma_05_LT
 73
     2
 44
0.6
  0
MTEXT
  5
552
330
BFE
100
AcDbEntity
  8
RELJ_AATZ_####_TKST_#
100
AcDbMText
 10
552652.773
 20
335218.37
 30
0.0
 40
0.5
 41
0.0
 46
0.0
 71
     1
 72
     1
  1
 97.77
  7
Tahoma_05_LT
 73
     2
 44
0.6
  0
MTEXT
  5
553
330
BFE
100
AcDbEntity
  8
RELJ_AATZ_####_TKST_#
100
AcDbMText
 10
552652.907
 20
335218.433
 30
0.0
 40
0.5
 41
0.0
 46
0.0
 71
     1
 72
     1
  1
 97.82
  7
Tahoma_05_LT
 73
     2
 44
0.6
  0
MTEXT
  5
554
330
BFE
100
AcDbEntity
  8
RELJ_AATZ_####_TKST_#
100
AcDbMText
 10
552652.822
 20
335217.385
 30
0.0
 40
0.5
 41
0.0
 46
0.0
 71
     1
 72
     1
  1
 97.74
  7
Tahoma_05_LT
 73
     2
 44
0.6
  0
MTEXT
  5
555
330
BFE
100
AcDbEntity
  8
RELJ_AATZ_####_TKST_#
100
AcDbMText
 10
552652.978
 20
335216.407
 30
0.0
 40
0.5
 41
0.0
 46
0.0
 71
     1
 72
     1
  1
 97.78
  7
Tahoma_05_LT
 73
     2
 44
0.6
  0
MTEXT
  5
556
330
BFE
100
AcDbEntity
  8
RELJ_AATZ_####_TKST_#
100
AcDbMText
 10
552653.508
 20
335215.021
 30
0.0
 40
0.5
 41
0.0
 46
0.0
 71
     1
 72
     1
  1
 97.92
  7
Tahoma_05_LT
 73
     2
 44
0.6
  0
MTEXT
  5
557
330
BFE
100
AcDbEntity
  8
RELJ_AATZ_####_TKST_#
100
AcDbMText
 10
552653.551
 20
335214.485
 30
0.0
 40
0.5
 41
0.0
 46
0.0
 71
     1
 72
     1
  1
 97.82
  7
Tahoma_05_LT
 73
     2
 44
0.6
  0
MTEXT
  5
558
330
BFE
100
AcDbEntity
  8
RELJ_AATZ_####_TKST_#
100
AcDbMText
 10
552655.763
 20
335212.477
 30
0.0
 40
0.5
 41
0.0
 46
0.0
 71
     1
 72
     1
  1
 97.87
  7
Tahoma_05_LT
 73
     2
 44
0.6
  0
MTEXT
  5
559
330
BFE
100
AcDbEntity
  8
RELJ_AATZ_####_TKST_#
100
AcDbMText
 10
552656.112
 20
335213.062
 30
0.0
 40
0.5
 41
0.0
 46
0.0
 71
     1
 72
     1
  1
 98.02
  7
Tahoma_05_LT
 73
     2
 44
0.6
  0
MTEXT
  5
55A
330
BFE
100
AcDbEntity
  8
RELJ_AATZ_####_TKST_#
100
AcDbMText
 10
552656.426
 20
335213.282
 30
0.0
 40
0.5
 41
0.0
 46
0.0
 71
     1
 72
     1
  1
 98.00
  7
Tahoma_05_LT
 73
     2
 44
0.6
  0
MTEXT
  5
55B
330
BFE
100
AcDbEntity
  8
RELJ_AATZ_####_TKST_#
100
AcDbMText
 10
552657.173
 20
335214.57
 30
0.0
 40
0.5
 41
0.0
 46
0.0
 71
     1
 72
     1
  1
 98.02
  7
Tahoma_05_LT
 73
     2
 44
0.6
  0
MTEXT
  5
55C
330
BFE
100
AcDbEntity
  8
RELJ_AATZ_####_TKST_#
100
AcDbMText
 10
552656.142
 20
335216.82
 30
0.0
 40
0.5
 41
0.0
 46
0.0
 71
     1
 72
     1
  1
 97.95
  7
Tahoma_05_LT
 73
     2
 44
0.6
  0
MTEXT
  5
55D
330
BFE
100
AcDbEntity
  8
RELJ_AATZ_####_TKST_#
100
AcDbMText
 10
552657.807
 20
335217.904
 30
0.0
 40
0.5
 41
0.0
 46
0.0
 71
     1
 72
     1
  1
 97.87
  7
Tahoma_05_LT
 73
     2
 44
0.6
  0
MTEXT
  5
55E
330
BFE
100
AcDbEntity
  8
RELJ_AATZ_####_TKST_#
100
AcDbMText
 10
552657.832
 20
335220.673
 30
0.0
 40
0.5
 41
0.0
 46
0.0
 71
     1
 72
     1
  1
 97.60
  7
Tahoma_05_LT
 73
     2
 44
0.6
  0
MTEXT
  5
55F
330
BFE
100
AcDbEntity
  8
RELJ_AATZ_####_TKST_#
100
AcDbMText
 10
552665.841
 20
335210.77
 30
0.0
 40
0.5
 41
0.0
 46
0.0
 71
     1
 72
     1
  1
 98.10
  7
Tahoma_05_LT
 73
     2
 44
0.6
  0
MTEXT
  5
560
330
BFE
100
AcDbEntity
  8
RELJ_AATZ_####_TKST_#
100
AcDbMText
 10
552665.181
 20
335209.844
 30
0.0
 40
0.5
 41
0.0
 46
0.0
 71
     1
 72
     1
  1
 98.12
  7
Tahoma_05_LT
 73
     2
 44
0.6
  0
MTEXT
  5
561
330
BFE
100
AcDbEntity
  8
RELJ_AATZ_####_TKST_#
100
AcDbMText
 10
552664.426
 20
335208.538
 30
0.0
 40
0.5
 41
0.0
 46
0.0
 71
     1
 72
     1
  1
 98.06
  7
Tahoma_05_LT
 73
     2
 44
0.6
  0
MTEXT
  5
562
330
BFE
100
AcDbEntity
  8
RELJ_AATZ_####_TKST_#
100
AcDbMText
 10
552663.865
 20
335207.735
 30
0.0
 40
0.5
 41
0.0
 46
0.0
 71
     1
 72
     1
  1
 97.92
  7
Tahoma_05_LT
 73
     2
 44
0.6
  0
MTEXT
  5
563
330
BFE
100
AcDbEntity
  8
RELJ_AATZ_####_TKST_#
100
AcDbMText
 10
552675.277
 20
335201.334
 30
0.0
 40
0.5
 41
0.0
 46
0.0
 71
     1
 72
     1
  1
 98.06
  7
Tahoma_05_LT
 73
     2
 44
0.6
  0
MTEXT
  5
564
330
BFE
100
AcDbEntity
  8
RELJ_AATZ_####_TKST_#
100
AcDbMText
 10
552675.514
 20
335201.998
 30
0.0
 40
0.5
 41
0.0
 46
0.0
 71
     1
 72
     1
  1
 98.16
  7
Tahoma_05_LT
 73
     2
 44
0.6
  0
MTEXT
  5
565
330
BFE
100
AcDbEntity
  8
RELJ_AATZ_####_TKST_#
100
AcDbMText
 10
552676.243
 20
335203.258
 30
0.0
 40
0.5
 41
0.0
 46
0.0
 71
     1
 72
     1
  1
 98.23
  7
Tahoma_05_LT
 73
     2
 44
0.6
  0
MTEXT
  5
566
330
BFE
100
AcDbEntity
  8
RELJ_AATZ_####_TKST_#
100
AcDbMText
 10
552676.757
 20
335204.369
 30
0.0
 40
0.5
 41
0.0
 46
0.0
 71
     1
 72
     1
  1
 98.24
  7
Tahoma_05_LT
 73
     2
 44
0.6
  0
MTEXT
  5
567
330
BFE
100
AcDbEntity
  8
RELJ_AATZ_####_TKST_#
100
AcDbMText
 10
552671.793
 20
335210.344
 30
0.0
 40
0.5
 41
0.0
 46
0.0
 71
     1
 72
     1
  1
 97.93
  7
Tahoma_05_LT
 73
     2
 44
0.6
  0
MTEXT
  5
568
330
BFE
100
AcDbEntity
  8
RELJ_AATZ_####_TKST_#
100
AcDbMText
 10
552671.089
 20
335213.622
 30
0.0
 40
0.5
 41
0.0
 46
0.0
 71
     1
 72
     1
  1
 97.72
  7
Tahoma_05_LT
 73
     2
 44
0.6
  0
MTEXT
  5
569
330
BFE
100
AcDbEntity
  8
RELJ_AATZ_####_TKST_#
100
AcDbMText
 10
552669.647
 20
335214.207
 30
0.0
 40
0.5
 41
0.0
 46
0.0
 71
     1
 72
     1
  1
 97.70
  7
Tahoma_05_LT
 73
     2
 44
0.6
  0
MTEXT
  5
56A
330
BFE
100
AcDbEntity
  8
RELJ_AATZ_####_TKST_#
100
AcDbMText
 10
552675.396
 20
335216.089
 30
0.0
 40
0.5
 41
0.0
 46
0.0
 71
     1
 72
     1
  1
 97.58
  7
Tahoma_05_LT
 73
     2
 44
0.6
  0
MTEXT
  5
56B
330
BFE
100
AcDbEntity
  8
RELJ_AATZ_####_TKST_#
100
AcDbMText
 10
552678.147
 20
335217.305
 30
0.0
 40
0.5
 41
0.0
 46
0.0
 71
     1
 72
     1
  1
 97.44
  7
Tahoma_05_LT
 73
     2
 44
0.6
  0
MTEXT
  5
56C
330
BFE
100
AcDbEntity
  8
RELJ_AATZ_####_TKST_#
100
AcDbMText
 10
552677.18
 20
335217.672
 30
0.0
 40
0.5
 41
0.0
 46
0.0
 71
     1
 72
     1
  1
 97.37
  7
Tahoma_05_LT
 73
     2
 44
0.6
  0
MTEXT
  5
56D
330
BFE
100
AcDbEntity
  8
RELJ_AATZ_####_TKST_#
100
AcDbMText
 10
552679.667
 20
335217.085
 30
0.0
 40
0.5
 41
0.0
 46
0.0
 71
     1
 72
     1
  1
 97.33
  7
Tahoma_05_LT
 73
     2
 44
0.6
  0
MTEXT
  5
56E
330
BFE
100
AcDbEntity
  8
RELJ_AATZ_####_TKST_#
100
AcDbMText
 10
552678.752
 20
335217.169
 30
0.0
 40
0.5
 41
0.0
 46
0.0
 71
     1
 72
     1
  1
 97.44
  7
Tahoma_05_LT
 73
     2
 44
0.6
  0
MTEXT
  5
56F
330
BFE
100
AcDbEntity
  8
RELJ_AATZ_####_TKST_#
100
AcDbMText
 10
552680.058
 20
335208.89
 30
0.0
 40
0.5
 41
0.0
 46
0.0
 71
     1
 72
     1
  1
 97.91
  7
Tahoma_05_LT
 73
     2
 44
0.6
  0
MTEXT
  5
570
330
BFE
100
AcDbEntity
  8
RELJ_AATZ_####_TKST_#
100
AcDbMText
 10
552676.87
 20
335206.323
 30
0.0
 40
0.5
 41
0.0
 46
0.0
 71
     1
 72
     1
  1
 97.97
  7
Tahoma_05_LT
 73
     2
 44
0.6
  0
MTEXT
  5
571
330
BFE
100
AcDbEntity
  8
RELJ_AATZ_####_TKST_#
100
AcDbMText
 10
552668.292
 20
335219.64
 30
0.0
 40
0.5
 41
0.0
 46
0.0
 71
     1
 72
     1
  1
 97.55
  7
Tahoma_05_LT
 73
     2
 44
0.6
  0
MTEXT
  5
572
330
BFE
100
AcDbEntity
  8
RELJ_AATZ_####_TKST_#
100
AcDbMText
 10
552658.37
 20
335227.069
 30
0.0
 40
0.5
 41
0.0
 46
0.0
 71
     1
 72
     1
  1
 97.45
  7
Tahoma_05_LT
 73
     2
 44
0.6
  0
MTEXT
  5
573
330
BFE
100
AcDbEntity
  8
RELJ_AATZ_####_TKST_#
100
AcDbMText
 10
552658.531
 20
335227.15
 30
0.0
 40
0.5
 41
0.0
 46
0.0
 71
     1
 72
     1
  1
 97.63
  7
Tahoma_05_LT
 73
     2
 44
0.6
  0
MTEXT
  5
574
330
BFE
100
AcDbEntity
  8
RELJ_AATZ_####_TKST_#
100
AcDbMText
 10
552659.197
 20
335234.128
 30
0.0
 40
0.5
 41
0.0
 46
0.0
 71
     1
 72
     1
  1
 97.48
  7
Tahoma_05_LT
 73
     2
 44
0.6
  0
MTEXT
  5
575
330
BFE
100
AcDbEntity
  8
RELJ_AATZ_####_TKST_#
100
AcDbMText
 10
552658.987
 20
335234.208
 30
0.0
 40
0.5
 41
0.0
 46
0.0
 71
     1
 72
     1
  1
 97.33
  7
Tahoma_05_LT
 73
     2
 44
0.6
  0
MTEXT
  5
576
330
BFE
100
AcDbEntity
  8
RELJ_AATZ_####_TKST_#
100
AcDbMText
 10
552668.508
 20
335233.371
 30
0.0
 40
0.5
 41
0.0
 46
0.0
 71
     1
 72
     1
  1
 97.33
  7
Tahoma_05_LT
 73
     2
 44
0.6
  0
MTEXT
  5
577
330
BFE
100
AcDbEntity
  8
RELJ_AATZ_####_TKST_#
100
AcDbMText
 10
552675.13
 20
335233.004
 30
0.0
 40
0.5
 41
0.0
 46
0.0
 71
     1
 72
     1
  1
 97.21
  7
Tahoma_05_LT
 73
     2
 44
0.6
  0
MTEXT
  5
578
330
BFE
100
AcDbEntity
  8
RELJ_AATZ_####_TKST_#
100
AcDbMText
 10
552678.192
 20
335239.11
 30
0.0
 40
0.5
 41
0.0
 46
0.0
 71
     1
 72
     1
  1
 97.08
  7
Tahoma_05_LT
 73
     2
 44
0.6
  0
MTEXT
  5
579
330
BFE
100
AcDbEntity
  8
RELJ_AATZ_####_TKST_#
100
AcDbMText
 10
552669.946
 20
335240.761
 30
0.0
 40
0.5
 41
0.0
 46
0.0
 71
     1
 72
     1
  1
 97.23
  7
Tahoma_05_LT
 73
     2
 44
0.6
  0
MTEXT
  5
57A
330
BFE
100
AcDbEntity
  8
RELJ_AATZ_####_TKST_#
100
AcDbMText
 10
552659.701
 20
335242.659
 30
0.0
 40
0.5
 41
0.0
 46
0.0
 71
     1
 72
     1
  1
 97.15
  7
Tahoma_05_LT
 73
     2
 44
0.6
  0
MTEXT
  5
57B
330
BFE
100
AcDbEntity
  8
RELJ_AATZ_####_TKST_#
100
AcDbMText
 10
552659.857
 20
335242.67
 30
0.0
 40
0.5
 41
0.0
 46
0.0
 71
     1
 72
     1
  1
 97.30
  7
Tahoma_05_LT
 73
     2
 44
0.6
  0
MTEXT
  5
57C
330
BFE
100
AcDbEntity
  8
RELJ_AATZ_####_TKST_#
100
AcDbMText
 10
552660.771
 20
335253.714
 30
0.0
 40
0.5
 41
0.0
 46
0.0
 71
     1
 72
     1
  1
 97.06
  7
Tahoma_05_LT
 73
     2
 44
0.6
  0
MTEXT
  5
57D
330
BFE
100
AcDbEntity
  8
RELJ_AATZ_####_TKST_#
100
AcDbMText
 10
552660.619
 20
335253.699
 30
0.0
 40
0.5
 41
0.0
 46
0.0
 71
     1
 72
     1
  1
 96.89
  7
Tahoma_05_LT
 73
     2
 44
0.6
  0
MTEXT
  5
57E
330
BFE
100
AcDbEntity
  8
RELJ_AATZ_####_TKST_#
100
AcDbMText
 10
552661.887
 20
335252.115
 30
0.0
 40
0.5
 41
0.0
 46
0.0
 71
     1
 72
     1
  1
 97.19
  7
Tahoma_05_LT
 73
     2
 44
0.6
  0
MTEXT
  5
57F
330
BFE
100
AcDbEntity
  8
RELJ_AATZ_####_TKST_#
100
AcDbMText
 10
552668.297
 20
335251.341
 30
0.0
 40
0.5
 41
0.0
 46
0.0
 71
     1
 72
     1
  1
 97.10
  7
Tahoma_05_LT
 73
     2
 44
0.6
  0
MTEXT
  5
580
330
BFE
100
AcDbEntity
  8
RELJ_AATZ_####_TKST_#
100
AcDbMText
 10
552672.223
 20
335250.688
 30
0.0
 40
0.5
 41
0.0
 46
0.0
 71
     1
 72
     1
  1
 97.19
  7
Tahoma_05_LT
 73
     2
 44
0.6
  0
MTEXT
  5
581
330
BFE
100
AcDbEntity
  8
RELJ_AATZ_####_TKST_#
100
AcDbMText
 10
552679.683
 20
335251.479
 30
0.0
 40
0.5
 41
0.0
 46
0.0
 71
     1
 72
     1
  1
 97.01
  7
Tahoma_05_LT
 73
     2
 44
0.6
  0
MTEXT
  5
582
330
BFE
100
AcDbEntity
  8
RELJ_AATZ_####_TKST_#
100
AcDbMText
 10
552680.847
 20
335260.243
 30
0.0
 40
0.5
 41
0.0
 46
0.0
 71
     1
 72
     1
  1
 97.23
  7
Tahoma_05_LT
 73
     2
 44
0.6
  0
MTEXT
  5
583
330
BFE
100
AcDbEntity
  8
RELJ_AATZ_####_TKST_#
100
AcDbMText
 10
552681.336
 20
335260.293
 30
0.0
 40
0.5
 41
0.0
 46
0.0
 71
     1
 72
     1
  1
 97.03
  7
Tahoma_05_LT
 73
     2
 44
0.6
  0
MTEXT
  5
584
330
BFE
100
AcDbEntity
  8
RELJ_AATZ_####_TKST_#
100
AcDbMText
 10
552674.035
 20
335260.451
 30
0.0
 40
0.5
 41
0.0
 46
0.0
 71
     1
 72
     1
  1
 96.96
  7
Tahoma_05_LT
 73
     2
 44
0.6
  0
MTEXT
  5
585
330
BFE
100
AcDbEntity
  8
RELJ_AATZ_####_TKST_#
100
AcDbMText
 10
552663.865
 20
335260.232
 30
0.0
 40
0.5
 41
0.0
 46
0.0
 71
     1
 72
     1
  1
 97.02
  7
Tahoma_05_LT
 73
     2
 44
0.6
  0
MTEXT
  5
586
330
BFE
100
AcDbEntity
  8
RELJ_AATZ_####_TKST_#
100
AcDbMText
 10
552663.041
 20
335261.224
 30
0.0
 40
0.5
 41
0.0
 46
0.0
 71
     1
 72
     1
  1
 97.09
  7
Tahoma_05_LT
 73
     2
 44
0.6
  0
MTEXT
  5
587
330
BFE
100
AcDbEntity
  8
RELJ_AATZ_####_TKST_#
100
AcDbMText
 10
552663.902
 20
335261.763
 30
0.0
 40
0.5
 41
0.0
 46
0.0
 71
     1
 72
     1
  1
 97.08
  7
Tahoma_05_LT
 73
     2
 44
0.6
  0
MTEXT
  5
588
330
BFE
100
AcDbEntity
  8
RELJ_AATZ_####_TKST_#
100
AcDbMText
 10
552667.193
 20
335265.726
 30
0.0
 40
0.5
 41
0.0
 46
0.0
 71
     1
 72
     1
  1
 97.08
  7
Tahoma_05_LT
 73
     2
 44
0.6
  0
MTEXT
  5
589
330
BFE
100
AcDbEntity
  8
RELJ_AATZ_####_TKST_#
100
AcDbMText
 10
552664.073
 20
335266.779
 30
0.0
 40
0.5
 41
0.0
 46
0.0
 71
     1
 72
     1
  1
 97.06
  7
Tahoma_05_LT
 73
     2
 44
0.6
  0
MTEXT
  5
58A
330
BFE
100
AcDbEntity
  8
RELJ_AATZ_####_TKST_#
100
AcDbMText
 10
552668.298
 20
335266.292
 30
0.0
 40
0.5
 41
0.0
 46
0.0
 71
     1
 72
     1
  1
 97.11
  7
Tahoma_05_LT
 73
     2
 44
0.6
  0
MTEXT
  5
58B
330
BFE
100
AcDbEntity
  8
RELJ_AATZ_####_TKST_#
100
AcDbMText
 10
552668.945
 20
335273.542
 30
0.0
 40
0.5
 41
0.0
 46
0.0
 71
     1
 72
     1
  1
 97.04
  7
Tahoma_05_LT
 73
     2
 44
0.6
  0
MTEXT
  5
58C
330
BFE
100
AcDbEntity
  8
RELJ_AATZ_####_TKST_#
100
AcDbMText
 10
552668.874
 20
335273.536
 30
0.0
 40
0.5
 41
0.0
 46
0.0
 71
     1
 72
     1
  1
 97.09
  7
Tahoma_05_LT
 73
     2
 44
0.6
  0
MTEXT
  5
58D
330
BFE
100
AcDbEntity
  8
RELJ_AATZ_####_TKST_#
100
AcDbMText
 10
552668.861
 20
335274.658
 30
0.0
 40
0.5
 41
0.0
 46
0.0
 71
     1
 72
     1
  1
 96.92
  7
Tahoma_05_LT
 73
     2
 44
0.6
  0
MTEXT
  5
58E
330
BFE
100
AcDbEntity
  8
RELJ_AATZ_####_TKST_#
100
AcDbMText
 10
552667.852
 20
335273.569
 30
0.0
 40
0.5
 41
0.0
 46
0.0
 71
     1
 72
     1
  1
 97.10
  7
Tahoma_05_LT
 73
     2
 44
0.6
  0
MTEXT
  5
58F
330
BFE
100
AcDbEntity
  8
RELJ_AATZ_####_TKST_#
100
AcDbMText
 10
552669.238
 20
335278.632
 30
0.0
 40
0.5
 41
0.0
 46
0.0
 71
     1
 72
     1
  1
 96.78
  7
Tahoma_05_LT
 73
     2
 44
0.6
  0
MTEXT
  5
590
330
BFE
100
AcDbEntity
  8
RELJ_AATZ_####_TKST_#
100
AcDbMText
 10
552669.385
 20
335278.642
 30
0.0
 40
0.5
 41
0.0
 46
0.0
 71
     1
 72
     1
  1
 96.92
  7
Tahoma_05_LT
 73
     2
 44
0.6
  0
MTEXT
  5
591
330
BFE
100
AcDbEntity
  8
RELJ_AATZ_####_TKST_#
100
AcDbMText
 10
552669.813
 20
335280.064
 30
0.0
 40
0.5
 41
0.0
 46
0.0
 71
     1
 72
     1
  1
 96.84
  7
Tahoma_05_LT
 73
     2
 44
0.6
  0
MTEXT
  5
592
330
BFE
100
AcDbEntity
  8
RELJ_AATZ_####_TKST_#
100
AcDbMText
 10
552669.694
 20
335280.136
 30
0.0
 40
0.5
 41
0.0
 46
0.0
 71
     1
 72
     1
  1
 96.70
  7
Tahoma_05_LT
 73
     2
 44
0.6
  0
MTEXT
  5
593
330
BFE
100
AcDbEntity
  8
RELJ_AATZ_####_TKST_#
100
AcDbMText
 10
552670.357
 20
335281.071
 30
0.0
 40
0.5
 41
0.0
 46
0.0
 71
     1
 72
     1
  1
 96.64
  7
Tahoma_05_LT
 73
     2
 44
0.6
  0
MTEXT
  5
594
330
BFE
100
AcDbEntity
  8
RELJ_AATZ_####_TKST_#
100
AcDbMText
 10
552671.041
 20
335281.411
 30
0.0
 40
0.5
 41
0.0
 46
0.0
 71
     1
 72
     1
  1
 96.64
  7
Tahoma_05_LT
 73
     2
 44
0.6
  0
MTEXT
  5
595
330
BFE
100
AcDbEntity
  8
RELJ_AATZ_####_TKST_#
100
AcDbMText
 10
552671.071
 20
335281.284
 30
0.0
 40
0.5
 41
0.0
 46
0.0
 71
     1
 72
     1
  1
 96.69
  7
Tahoma_05_LT
 73
     2
 44
0.6
  0
MTEXT
  5
596
330
BFE
100
AcDbEntity
  8
RELJ_AATZ_####_TKST_#
100
AcDbMText
 10
552674.808
 20
335277.035
 30
0.0
 40
0.5
 41
0.0
 46
0.0
 71
     1
 72
     1
  1
 96.80
  7
Tahoma_05_LT
 73
     2
 44
0.6
  0
MTEXT
  5
597
330
BFE
100
AcDbEntity
  8
RELJ_AATZ_####_TKST_#
100
AcDbMText
 10
552678.508
 20
335282.598
 30
0.0
 40
0.5
 41
0.0
 46
0.0
 71
     1
 72
     1
  1
 96.55
  7
Tahoma_05_LT
 73
     2
 44
0.6
  0
MTEXT
  5
598
330
BFE
100
AcDbEntity
  8
RELJ_AATZ_####_TKST_#
100
AcDbMText
 10
552678.652
 20
335282.629
 30
0.0
 40
0.5
 41
0.0
 46
0.0
 71
     1
 72
     1
  1
 96.59
  7
Tahoma_05_LT
 73
     2
 44
0.6
  0
MTEXT
  5
599
330
BFE
100
AcDbEntity
  8
RELJ_AATZ_####_TKST_#
100
AcDbMText
 10
552679.072
 20
335290.342
 30
0.0
 40
0.5
 41
0.0
 46
0.0
 71
     1
 72
     1
  1
 96.42
  7
Tahoma_05_LT
 73
     2
 44
0.6
  0
MTEXT
  5
59A
330
BFE
100
AcDbEntity
  8
RELJ_AATZ_####_TKST_#
100
AcDbMText
 10
552679.224
 20
335290.347
 30
0.0
 40
0.5
 41
0.0
 46
0.0
 71
     1
 72
     1
  1
 96.53
  7
Tahoma_05_LT
 73
     2
 44
0.6
  0
MTEXT
  5
59B
330
BFE
100
AcDbEntity
  8
RELJ_AATZ_####_TKST_#
100
AcDbMText
 10
552679.753
 20
335296.685
 30
0.0
 40
0.5
 41
0.0
 46
0.0
 71
     1
 72
     1
  1
 96.36
  7
Tahoma_05_LT
 73
     2
 44
0.6
  0
MTEXT
  5
59C
330
BFE
100
AcDbEntity
  8
RELJ_AATZ_####_TKST_#
100
AcDbMText
 10
552682.339
 20
335296.077
 30
0.0
 40
0.5
 41
0.0
 46
0.0
 71
     1
 72
     1
  1
 96.41
  7
Tahoma_05_LT
 73
     2
 44
0.6
  0
MTEXT
  5
59D
330
BFE
100
AcDbEntity
  8
RELJ_AATZ_####_TKST_#
100
AcDbMText
 10
552676.027
 20
335297.4
 30
0.0
 40
0.5
 41
0.0
 46
0.0
 71
     1
 72
     1
  1
 96.35
  7
Tahoma_05_LT
 73
     2
 44
0.6
  0
MTEXT
  5
59E
330
BFE
100
AcDbEntity
  8
RELJ_AATZ_####_TKST_#
100
AcDbMText
 10
552674.063
 20
335291.186
 30
0.0
 40
0.5
 41
0.0
 46
0.0
 71
     1
 72
     1
  1
 96.43
  7
Tahoma_05_LT
 73
     2
 44
0.6
  0
MTEXT
  5
59F
330
BFE
100
AcDbEntity
  8
RELJ_AATZ_####_TKST_#
100
AcDbMText
 10
552667.318
 20
335267.591
 30
0.0
 40
0.5
 41
0.0
 46
0.0
 71
     1
 72
     1
  1
 97.08
  7
Tahoma_05_LT
 73
     2
 44
0.6
  0
MTEXT
  5
5A0
330
BFE
100
AcDbEntity
  8
RELJ_AATZ_####_TKST_#
100
AcDbMText
 10
552664.434
 20
335267.833
 30
0.0
 40
0.5
 41
0.0
 46
0.0
 71
     1
 72
     1
  1
 97.12
  7
Tahoma_05_LT
 73
     2
 44
0.6
  0
MTEXT
  5
5A1
330
BFE
100
AcDbEntity
  8
RELJ_AATZ_####_TKST_#
100
AcDbMText
 10
552663.999
 20
335269.778
 30
0.0
 40
0.5
 41
0.0
 46
0.0
 71
     1
 72
     1
  1
 97.10
  7
Tahoma_05_LT
 73
     2
 44
0.6
  0
MTEXT
  5
5A2
330
BFE
100
AcDbEntity
  8
RELJ_AATZ_####_TKST_#
100
AcDbMText
 10
552664.09
 20
335270.747
 30
0.0
 40
0.5
 41
0.0
 46
0.0
 71
     1
 72
     1
  1
 97.11
  7
Tahoma_05_LT
 73
     2
 44
0.6
  0
MTEXT
  5
5A3
330
BFE
100
AcDbEntity
  8
RELJ_AATZ_####_TKST_#
100
AcDbMText
 10
552663.133
 20
335262.378
 30
0.0
 40
0.5
 41
0.0
 46
0.0
 71
     1
 72
     1
  1
 97.13
  7
Tahoma_05_LT
 73
     2
 44
0.6
  0
MTEXT
  5
5A4
330
BFE
100
AcDbEntity
  8
RELJ_AATZ_####_TKST_#
100
AcDbMText
 10
552659.3
 20
335261.873
 30
0.0
 40
0.5
 41
0.0
 46
0.0
 71
     1
 72
     1
  1
 97.13
  7
Tahoma_05_LT
 73
     2
 44
0.6
  0
MTEXT
  5
5A5
330
BFE
100
AcDbEntity
  8
RELJ_AATZ_####_TKST_#
100
AcDbMText
 10
552652.98
 20
335262.475
 30
0.0
 40
0.5
 41
0.0
 46
0.0
 71
     1
 72
     1
  1
 97.15
  7
Tahoma_05_LT
 73
     2
 44
0.6
  0
MTEXT
  5
5A6
330
BFE
100
AcDbEntity
  8
RELJ_AATZ_####_TKST_#
100
AcDbMText
 10
552649.663
 20
335262.782
 30
0.0
 40
0.5
 41
0.0
 46
0.0
 71
     1
 72
     1
  1
 97.14
  7
Tahoma_05_LT
 73
     2
 44
0.6
  0
MTEXT
  5
5A7
330
BFE
100
AcDbEntity
  8
RELJ_AATZ_####_TKST_#
100
AcDbMText
 10
552641.143
 20
335268.131
 30
0.0
 40
0.5
 41
0.0
 46
0.0
 71
     1
 72
     1
  1
 97.14
  7
Tahoma_05_LT
 73
     2
 44
0.6
  0
MTEXT
  5
5A8
330
BFE
100
AcDbEntity
  8
RELJ_AATZ_####_TKST_#
100
AcDbMText
 10
552630.928
 20
335269.023
 30
0.0
 40
0.5
 41
0.0
 46
0.0
 71
     1
 72
     1
  1
 97.13
  7
Tahoma_05_LT
 73
     2
 44
0.6
  0
MTEXT
  5
5A9
330
BFE
100
AcDbEntity
  8
RELJ_AATZ_####_TKST_#
100
AcDbMText
 10
552626.25
 20
335265.426
 30
0.0
 40
0.5
 41
0.0
 46
0.0
 71
     1
 72
     1
  1
 96.99
  7
Tahoma_05_LT
 73
     2
 44
0.6
  0
MTEXT
  5
5AA
330
BFE
100
AcDbEntity
  8
RELJ_AATZ_####_TKST_#
100
AcDbMText
 10
552632.258
 20
335265.414
 30
0.0
 40
0.5
 41
0.0
 46
0.0
 71
     1
 72
     1
  1
 97.10
  7
Tahoma_05_LT
 73
     2
 44
0.6
  0
MTEXT
  5
5AB
330
BFE
100
AcDbEntity
  8
RELJ_AATZ_####_TKST_#
100
AcDbMText
 10
552637.119
 20
335268.2
 30
0.0
 40
0.5
 41
0.0
 46
0.0
 71
     1
 72
     1
  1
 97.12
  7
Tahoma_05_LT
 73
     2
 44
0.6
  0
MTEXT
  5
5AC
330
BFE
100
AcDbEntity
  8
RELJ_AATZ_####_TKST_#
100
AcDbMText
 10
552637.619
 20
335266.908
 30
0.0
 40
0.5
 41
0.0
 46
0.0
 71
     1
 72
     1
  1
 97.03
  7
Tahoma_05_LT
 73
     2
 44
0.6
  0
MTEXT
  5
5AD
330
BFE
100
AcDbEntity
  8
RELJ_AATZ_####_TKST_#
100
AcDbMText
 10
552640.572
 20
335266.679
 30
0.0
 40
0.5
 41
0.0
 46
0.0
 71
     1
 72
     1
  1
 97.03
  7
Tahoma_05_LT
 73
     2
 44
0.6
  0
MTEXT
  5
5AE
330
BFE
100
AcDbEntity
  8
RELJ_AATZ_####_TKST_#
100
AcDbMText
 10
552642.422
 20
335259.242
 30
0.0
 40
0.5
 41
0.0
 46
0.0
 71
     1
 72
     1
  1
 97.05
  7
Tahoma_05_LT
 73
     2
 44
0.6
  0
MTEXT
  5
5AF
330
BFE
100
AcDbEntity
  8
RELJ_AATZ_####_TKST_#
100
AcDbMText
 10
552653.211
 20
335260.735
 30
0.0
 40
0.5
 41
0.0
 46
0.0
 71
     1
 72
     1
  1
 97.06
  7
Tahoma_05_LT
 73
     2
 44
0.6
  0
MTEXT
  5
5B0
330
BFE
100
AcDbEntity
  8
RELJ_AATZ_####_TKST_#
100
AcDbMText
 10
552656.151
 20
335260.454
 30
0.0
 40
0.5
 41
0.0
 46
0.0
 71
     1
 72
     1
  1
 97.03
  7
Tahoma_05_LT
 73
     2
 44
0.6
  0
MTEXT
  5
5B1
330
BFE
100
AcDbEntity
  8
RELJ_AATZ_####_TKST_#
100
AcDbMText
 10
552656.8
 20
335261.855
 30
0.0
 40
0.5
 41
0.0
 46
0.0
 71
     1
 72
     1
  1
 97.09
  7
Tahoma_05_LT
 73
     2
 44
0.6
  0
MTEXT
  5
5B2
330
BFE
100
AcDbEntity
  8
RELJ_AATZ_####_TKST_#
100
AcDbMText
 10
552656.097
 20
335259.305
 30
0.0
 40
0.5
 41
0.0
 46
0.0
 71
     1
 72
     1
  1
 97.03
  7
Tahoma_05_LT
 73
     2
 44
0.6
  0
MTEXT
  5
5B3
330
BFE
100
AcDbEntity
  8
RELJ_AATZ_####_TKST_#
100
AcDbMText
 10
552656.41
 20
335257.512
 30
0.0
 40
0.5
 41
0.0
 46
0.0
 71
     1
 72
     1
  1
 97.02
  7
Tahoma_05_LT
 73
     2
 44
0.6
  0
MTEXT
  5
5B4
330
BFE
100
AcDbEntity
  8
RELJ_AATZ_####_TKST_#
100
AcDbMText
 10
552656.734
 20
335254.622
 30
0.0
 40
0.5
 41
0.0
 46
0.0
 71
     1
 72
     1
  1
 96.85
  7
Tahoma_05_LT
 73
     2
 44
0.6
  0
MTEXT
  5
5B5
330
BFE
100
AcDbEntity
  8
RELJ_AATZ_####_TKST_#
100
AcDbMText
 10
552656.785
 20
335254.781
 30
0.0
 40
0.5
 41
0.0
 46
0.0
 71
     1
 72
     1
  1
 97.02
  7
Tahoma_05_LT
 73
     2
 44
0.6
  0
MTEXT
  5
5B6
330
BFE
100
AcDbEntity
  8
RELJ_AATZ_####_TKST_#
100
AcDbMText
 10
552655.795
 20
335254.871
 30
0.0
 40
0.5
 41
0.0
 46
0.0
 71
     1
 72
     1
  1
 96.86
  7
Tahoma_05_LT
 73
     2
 44
0.6
  0
MTEXT
  5
5B7
330
BFE
100
AcDbEntity
  8
RELJ_AATZ_####_TKST_#
100
AcDbMText
 10
552655.77
 20
335255.015
 30
0.0
 40
0.5
 41
0.0
 46
0.0
 71
     1
 72
     1
  1
 96.91
  7
Tahoma_05_LT
 73
     2
 44
0.6
  0
MTEXT
  5
5B8
330
BFE
100
AcDbEntity
  8
RELJ_AATZ_####_TKST_#
100
AcDbMText
 10
552654.867
 20
335254.157
 30
0.0
 40
0.5
 41
0.0
 46
0.0
 71
     1
 72
     1
  1
 96.85
  7
Tahoma_05_LT
 73
     2
 44
0.6
  0
MTEXT
  5
5B9
330
BFE
100
AcDbEntity
  8
RELJ_AATZ_####_TKST_#
100
AcDbMText
 10
552652.493
 20
335255.513
 30
0.0
 40
0.5
 41
0.0
 46
0.0
 71
     1
 72
     1
  1
 96.85
  7
Tahoma_05_LT
 73
     2
 44
0.6
  0
MTEXT
  5
5BA
330
BFE
100
AcDbEntity
  8
RELJ_AATZ_####_TKST_#
100
AcDbMText
 10
552652.744
 20
335256.385
 30
0.0
 40
0.5
 41
0.0
 46
0.0
 71
     1
 72
     1
  1
 97.01
  7
Tahoma_05_LT
 73
     2
 44
0.6
  0
TEXT
  5
5BD
330
BFE
100
AcDbEntity
  8
2
 62
     7
100
AcDbText
 10
552645.372
 20
335262.615
 30
0.0
 40
0.25
  1
AKANAVATR 
 50
45.0
100
AcDbText
  0
MTEXT
  5
5BE
330
BFE
100
AcDbEntity
  8
RELJ_AATZ_####_TKST_#
100
AcDbMText
 10
552645.372
 20
335262.615
 30
0.0
 40
0.5
 41
0.0
 46
0.0
 71
     1
 72
     1
  1
 97.07
  7
Tahoma_05_LT
 73
     2
 44
0.6
  0
TEXT
  5
5BF
330
BFE
100
AcDbEntity
  8
2
 62
     7
100
AcDbText
 10
552642.544
 20
335263.402
 30
0.0
 40
0.25
  1
AKANAVATR 
 50
45.0
100
AcDbText
  0
MTEXT
  5
5C0
330
BFE
100
AcDbEntity
  8
RELJ_AATZ_####_TKST_#
100
AcDbMText
 10
552642.544
 20
335263.402
 30
0.0
 40
0.5
 41
0.0
 46
0.0
 71
     1
 72
     1
  1
 97.00
  7
Tahoma_05_LT
 73
     2
 44
0.6
  0
MTEXT
  5
5C1
330
BFE
100
AcDbEntity
  8
RELJ_AATZ_####_TKST_#
100
AcDbMText
 10
552640.053
 20
335259.601
 30
0.0
 40
0.5
 41
0.0
 46
0.0
 71
     1
 72
     1
  1
 97.03
  7
Tahoma_05_LT
 73
     2
 44
0.6
  0
MTEXT
  5
5C2
330
BFE
100
AcDbEntity
  8
RELJ_AATZ_####_TKST_#
100
AcDbMText
 10
552639.972
 20
335258.645
 30
0.0
 40
0.5
 41
0.0
 46
0.0
 71
     1
 72
     1
  1
 96.91
  7
Tahoma_05_LT
 73
     2
 44
0.6
  0
MTEXT
  5
5C3
330
BFE
100
AcDbEntity
  8
RELJ_AATZ_####_TKST_#
100
AcDbMText
 10
552636.834
 20
335259.416
 30
0.0
 40
0.5
 41
0.0
 46
0.0
 71
     1
 72
     1
  1
 96.86
  7
Tahoma_05_LT
 73
     2
 44
0.6
  0
MTEXT
  5
5C4
330
BFE
100
AcDbEntity
  8
RELJ_AATZ_####_TKST_#
100
AcDbMText
 10
552636.994
 20
335260.386
 30
0.0
 40
0.5
 41
0.0
 46
0.0
 71
     1
 72
     1
  1
 97.02
  7
Tahoma_05_LT
 73
     2
 44
0.6
  0
MTEXT
  5
5C5
330
BFE
100
AcDbEntity
  8
RELJ_AATZ_####_TKST_#
100
AcDbMText
 10
552624.318
 20
335263.517
 30
0.0
 40
0.5
 41
0.0
 46
0.0
 71
     1
 72
     1
  1
 96.95
  7
Tahoma_05_LT
 73
     2
 44
0.6
  0
MTEXT
  5
5C6
330
BFE
100
AcDbEntity
  8
RELJ_AATZ_####_TKST_#
100
AcDbMText
 10
552624.109
 20
335262.59
 30
0.0
 40
0.5
 41
0.0
 46
0.0
 71
     1
 72
     1
  1
 96.82
  7
Tahoma_05_LT
 73
     2
 44
0.6
  0
MTEXT
  5
5C7
330
BFE
100
AcDbEntity
  8
RELJ_AATZ_####_TKST_#
100
AcDbMText
 10
552621.469
 20
335263.225
 30
0.0
 40
0.5
 41
0.0
 46
0.0
 71
     1
 72
     1
  1
 96.83
  7
Tahoma_05_LT
 73
     2
 44
0.6
  0
MTEXT
  5
5C8
330
BFE
100
AcDbEntity
  8
RELJ_AATZ_####_TKST_#
100
AcDbMText
 10
552621.314
 20
335264.045
 30
0.0
 40
0.5
 41
0.0
 46
0.0
 71
     1
 72
     1
  1
 97.00
  7
Tahoma_05_LT
 73
     2
 44
0.6
  0
MTEXT
  5
5C9
330
BFE
100
AcDbEntity
  8
RELJ_AATZ_####_TKST_#
100
AcDbMText
 10
552620.398
 20
335262.792
 30
0.0
 40
0.5
 41
0.0
 46
0.0
 71
     1
 72
     1
  1
 96.82
  7
Tahoma_05_LT
 73
     2
 44
0.6
  0
MTEXT
  5
5CA
330
BFE
100
AcDbEntity
  8
RELJ_AATZ_####_TKST_#
100
AcDbMText
 10
552617.445
 20
335266.802
 30
0.0
 40
0.5
 41
0.0
 46
0.0
 71
     1
 72
     1
  1
 97.13
  7
Tahoma_05_LT
 73
     2
 44
0.6
  0
MTEXT
  5
5CB
330
BFE
100
AcDbEntity
  8
RELJ_AATZ_####_TKST_#
100
AcDbMText
 10
552615.334
 20
335265.708
 30
0.0
 40
0.5
 41
0.0
 46
0.0
 71
     1
 72
     1
  1
 97.12
  7
Tahoma_05_LT
 73
     2
 44
0.6
  0
MTEXT
  5
5CC
330
BFE
100
AcDbEntity
  8
RELJ_AATZ_####_TKST_#
100
AcDbMText
 10
552620.968
 20
335266.946
 30
0.0
 40
0.5
 41
0.0
 46
0.0
 71
     1
 72
     1
  1
 97.09
  7
Tahoma_05_LT
 73
     2
 44
0.6
  0
MTEXT
  5
5CD
330
BFE
100
AcDbEntity
  8
RELJ_AATZ_####_TKST_#
100
AcDbMText
 10
552621.742
 20
335269.217
 30
0.0
 40
0.5
 41
0.0
 46
0.0
 71
     1
 72
     1
  1
 97.05
  7
Tahoma_05_LT
 73
     2
 44
0.6
  0
MTEXT
  5
5CE
330
BFE
100
AcDbEntity
  8
RELJ_AATZ_####_TKST_#
100
AcDbMText
 10
552613.369
 20
335258.287
 30
0.0
 40
0.5
 41
0.0
 46
0.0
 71
     1
 72
     1
  1
 97.09
  7
Tahoma_05_LT
 73
     2
 44
0.6
  0
MTEXT
  5
5CF
330
BFE
100
AcDbEntity
  8
RELJ_AATZ_####_TKST_#
100
AcDbMText
 10
552613.391
 20
335258.123
 30
0.0
 40
0.5
 41
0.0
 46
0.0
 71
     1
 72
     1
  1
 97.20
  7
Tahoma_05_LT
 73
     2
 44
0.6
  0
MTEXT
  5
5D0
330
BFE
100
AcDbEntity
  8
RELJ_AATZ_####_TKST_#
100
AcDbMText
 10
552614.091
 20
335258.421
 30
0.0
 40
0.5
 41
0.0
 46
0.0
 71
     1
 72
     1
  1
 97.06
  7
Tahoma_05_LT
 73
     2
 44
0.6
  0
MTEXT
  5
5D1
330
BFE
100
AcDbEntity
  8
RELJ_AATZ_####_TKST_#
100
AcDbMText
 10
552615.662
 20
335253.953
 30
0.0
 40
0.5
 41
0.0
 46
0.0
 71
     1
 72
     1
  1
 97.12
  7
Tahoma_05_LT
 73
     2
 44
0.6
  0
MTEXT
  5
5D2
330
BFE
100
AcDbEntity
  8
RELJ_AATZ_####_TKST_#
100
AcDbMText
 10
552615.497
 20
335253.875
 30
0.0
 40
0.5
 41
0.0
 46
0.0
 71
     1
 72
     1
  1
 97.27
  7
Tahoma_05_LT
 73
     2
 44
0.6
  0
MTEXT
  5
5D3
330
BFE
100
AcDbEntity
  8
RELJ_AATZ_####_TKST_#
100
AcDbMText
 10
552626.101
 20
335251.357
 30
0.0
 40
0.5
 41
0.0
 46
0.0
 71
     1
 72
     1
  1
 97.11
  7
Tahoma_05_LT
 73
     2
 44
0.6
  0
MTEXT
  5
5D4
330
BFE
100
AcDbEntity
  8
RELJ_AATZ_####_TKST_#
100
AcDbMText
 10
552626.033
 20
335251.222
 30
0.0
 40
0.5
 41
0.0
 46
0.0
 71
     1
 72
     1
  1
 97.26
  7
Tahoma_05_LT
 73
     2
 44
0.6
  0
MTEXT
  5
5D5
330
BFE
100
AcDbEntity
  8
RELJ_AATZ_####_TKST_#
100
AcDbMText
 10
552626.696
 20
335256.081
 30
0.0
 40
0.5
 41
0.0
 46
0.0
 71
     1
 72
     1
  1
 96.90
  7
Tahoma_05_LT
 73
     2
 44
0.6
  0
MTEXT
  5
5D6
330
BFE
100
AcDbEntity
  8
RELJ_AATZ_####_TKST_#
100
AcDbMText
 10
552634.682
 20
335253.933
 30
0.0
 40
0.5
 41
0.0
 46
0.0
 71
     1
 72
     1
  1
 96.93
  7
Tahoma_05_LT
 73
     2
 44
0.6
  0
MTEXT
  5
5D7
330
BFE
100
AcDbEntity
  8
RELJ_AATZ_####_TKST_#
100
AcDbMText
 10
552634.845
 20
335249.161
 30
0.0
 40
0.5
 41
0.0
 46
0.0
 71
     1
 72
     1
  1
 97.10
  7
Tahoma_05_LT
 73
     2
 44
0.6
  0
MTEXT
  5
5D8
330
BFE
100
AcDbEntity
  8
RELJ_AATZ_####_TKST_#
100
AcDbMText
 10
552635.015
 20
335248.959
 30
0.0
 40
0.5
 41
0.0
 46
0.0
 71
     1
 72
     1
  1
 97.23
  7
Tahoma_05_LT
 73
     2
 44
0.6
  0
MTEXT
  5
5D9
330
BFE
100
AcDbEntity
  8
RELJ_AATZ_####_TKST_#
100
AcDbMText
 10
552642.218
 20
335247.328
 30
0.0
 40
0.5
 41
0.0
 46
0.0
 71
     1
 72
     1
  1
 97.09
  7
Tahoma_05_LT
 73
     2
 44
0.6
  0
MTEXT
  5
5DA
330
BFE
100
AcDbEntity
  8
RELJ_AATZ_####_TKST_#
100
AcDbMText
 10
552642.207
 20
335247.211
 30
0.0
 40
0.5
 41
0.0
 46
0.0
 71
     1
 72
     1
  1
 97.26
  7
Tahoma_05_LT
 73
     2
 44
0.6
  0
MTEXT
  5
5DB
330
BFE
100
AcDbEntity
  8
RELJ_AATZ_####_TKST_#
100
AcDbMText
 10
552642.482
 20
335252.31
 30
0.0
 40
0.5
 41
0.0
 46
0.0
 71
     1
 72
     1
  1
 96.88
  7
Tahoma_05_LT
 73
     2
 44
0.6
  0
MTEXT
  5
5DC
330
BFE
100
AcDbEntity
  8
RELJ_AATZ_####_TKST_#
100
AcDbMText
 10
552649.887
 20
335250.782
 30
0.0
 40
0.5
 41
0.0
 46
0.0
 71
     1
 72
     1
  1
 96.92
  7
Tahoma_05_LT
 73
     2
 44
0.6
  0
MTEXT
  5
5DD
330
BFE
100
AcDbEntity
  8
RELJ_AATZ_####_TKST_#
100
AcDbMText
 10
552651.806
 20
335248.377
 30
0.0
 40
0.5
 41
0.0
 46
0.0
 71
     1
 72
     1
  1
 96.99
  7
Tahoma_05_LT
 73
     2
 44
0.6
  0
MTEXT
  5
5DE
330
BFE
100
AcDbEntity
  8
RELJ_AATZ_####_TKST_#
100
AcDbMText
 10
552654.976
 20
335247.523
 30
0.0
 40
0.5
 41
0.0
 46
0.0
 71
     1
 72
     1
  1
 96.97
  7
Tahoma_05_LT
 73
     2
 44
0.6
  0
MTEXT
  5
5DF
330
BFE
100
AcDbEntity
  8
RELJ_AATZ_####_TKST_#
100
AcDbMText
 10
552649.014
 20
335245.623
 30
0.0
 40
0.5
 41
0.0
 46
0.0
 71
     1
 72
     1
  1
 97.12
  7
Tahoma_05_LT
 73
     2
 44
0.6
  0
MTEXT
  5
5E0
330
BFE
100
AcDbEntity
  8
RELJ_AATZ_####_TKST_#
100
AcDbMText
 10
552648.976
 20
335245.484
 30
0.0
 40
0.5
 41
0.0
 46
0.0
 71
     1
 72
     1
  1
 97.26
  7
Tahoma_05_LT
 73
     2
 44
0.6
  0
MTEXT
  5
5E1
330
BFE
100
AcDbEntity
  8
RELJ_AATZ_####_TKST_#
100
AcDbMText
 10
552650.382
 20
335244.867
 30
0.0
 40
0.5
 41
0.0
 46
0.0
 71
     1
 72
     1
  1
 97.14
  7
Tahoma_05_LT
 73
     2
 44
0.6
  0
MTEXT
  5
5E2
330
BFE
100
AcDbEntity
  8
RELJ_AATZ_####_TKST_#
100
AcDbMText
 10
552651.145
 20
335242.99
 30
0.0
 40
0.5
 41
0.0
 46
0.0
 71
     1
 72
     1
  1
 97.18
  7
Tahoma_05_LT
 73
     2
 44
0.6
  0
MTEXT
  5
5E3
330
BFE
100
AcDbEntity
  8
RELJ_AATZ_####_TKST_#
100
AcDbMText
 10
552651.002
 20
335243.017
 30
0.0
 40
0.5
 41
0.0
 46
0.0
 71
     1
 72
     1
  1
 97.29
  7
Tahoma_05_LT
 73
     2
 44
0.6
  0
MTEXT
  5
5E4
330
BFE
100
AcDbEntity
  8
RELJ_AATZ_####_TKST_#
100
AcDbMText
 10
552650.589
 20
335235.745
 30
0.0
 40
0.5
 41
0.0
 46
0.0
 71
     1
 72
     1
  1
 97.29
  7
Tahoma_05_LT
 73
     2
 44
0.6
  0
MTEXT
  5
5E5
330
BFE
100
AcDbEntity
  8
RELJ_AATZ_####_TKST_#
100
AcDbMText
 10
552650.424
 20
335235.723
 30
0.0
 40
0.5
 41
0.0
 46
0.0
 71
     1
 72
     1
  1
 97.41
  7
Tahoma_05_LT
 73
     2
 44
0.6
  0
MTEXT
  5
5E6
330
BFE
100
AcDbEntity
  8
RELJ_AATZ_####_TKST_#
100
AcDbMText
 10
552654.06
 20
335235.659
 30
0.0
 40
0.5
 41
0.0
 46
0.0
 71
     1
 72
     1
  1
 97.26
  7
Tahoma_05_LT
 73
     2
 44
0.6
  0
MTEXT
  5
5E7
330
BFE
100
AcDbEntity
  8
RELJ_AATZ_####_TKST_#
100
AcDbMText
 10
552649.665
 20
335224.364
 30
0.0
 40
0.5
 41
0.0
 46
0.0
 71
     1
 72
     1
  1
 97.54
  7
Tahoma_05_LT
 73
     2
 44
0.6
  0
MTEXT
  5
5E8
330
BFE
100
AcDbEntity
  8
RELJ_AATZ_####_TKST_#
100
AcDbMText
 10
552649.518
 20
335224.377
 30
0.0
 40
0.5
 41
0.0
 46
0.0
 71
     1
 72
     1
  1
 97.67
  7
Tahoma_05_LT
 73
     2
 44
0.6
  0
MTEXT
  5
5E9
330
BFE
100
AcDbEntity
  8
RELJ_AATZ_####_TKST_#
100
AcDbMText
 10
552649.069
 20
335221.395
 30
0.0
 40
0.5
 41
0.0
 46
0.0
 71
     1
 72
     1
  1
 97.68
  7
Tahoma_05_LT
 73
     2
 44
0.6
  0
MTEXT
  5
5EA
330
BFE
100
AcDbEntity
  8
RELJ_AATZ_####_TKST_#
100
AcDbMText
 10
552648.706
 20
335220.495
 30
0.0
 40
0.5
 41
0.0
 46
0.0
 71
     1
 72
     1
  1
 97.71
  7
Tahoma_05_LT
 73
     2
 44
0.6
  0
MTEXT
  5
5EB
330
BFE
100
AcDbEntity
  8
RELJ_AATZ_####_TKST_#
100
AcDbMText
 10
552648.617
 20
335220.657
 30
0.0
 40
0.5
 41
0.0
 46
0.0
 71
     1
 72
     1
  1
 97.81
  7
Tahoma_05_LT
 73
     2
 44
0.6
  0
MTEXT
  5
5EC
330
BFE
100
AcDbEntity
  8
RELJ_AATZ_####_TKST_#
100
AcDbMText
 10
552648.086
 20
335219.665
 30
0.0
 40
0.5
 41
0.0
 46
0.0
 71
     1
 72
     1
  1
 97.75
  7
Tahoma_05_LT
 73
     2
 44
0.6
  0
MTEXT
  5
5ED
330
BFE
100
AcDbEntity
  8
RELJ_AATZ_####_TKST_#
100
AcDbMText
 10
552647.993
 20
335219.724
 30
0.0
 40
0.5
 41
0.0
 46
0.0
 71
     1
 72
     1
  1
 97.76
  7
Tahoma_05_LT
 73
     2
 44
0.6
  0
MTEXT
  5
5EE
330
BFE
100
AcDbEntity
  8
RELJ_AATZ_####_TKST_#
100
AcDbMText
 10
552647.313
 20
335219.05
 30
0.0
 40
0.5
 41
0.0
 46
0.0
 71
     1
 72
     1
  1
 97.79
  7
Tahoma_05_LT
 73
     2
 44
0.6
  0
MTEXT
  5
5EF
330
BFE
100
AcDbEntity
  8
RELJ_AATZ_####_TKST_#
100
AcDbMText
 10
552646.369
 20
335218.781
 30
0.0
 40
0.5
 41
0.0
 46
0.0
 71
     1
 72
     1
  1
 97.81
  7
Tahoma_05_LT
 73
     2
 44
0.6
  0
MTEXT
  5
5F0
330
BFE
100
AcDbEntity
  8
RELJ_AATZ_####_TKST_#
100
AcDbMText
 10
552646.377
 20
335218.85
 30
0.0
 40
0.5
 41
0.0
 46
0.0
 71
     1
 72
     1
  1
 97.85
  7
Tahoma_05_LT
 73
     2
 44
0.6
  0
MTEXT
  5
5F1
330
BFE
100
AcDbEntity
  8
RELJ_AATZ_####_TKST_#
100
AcDbMText
 10
552645.385
 20
335218.918
 30
0.0
 40
0.5
 41
0.0
 46
0.0
 71
     1
 72
     1
  1
 97.83
  7
Tahoma_05_LT
 73
     2
 44
0.6
  0
MTEXT
  5
5F2
330
BFE
100
AcDbEntity
  8
RELJ_AATZ_####_TKST_#
100
AcDbMText
 10
552645.451
 20
335219.033
 30
0.0
 40
0.5
 41
0.0
 46
0.0
 71
     1
 72
     1
  1
 97.93
  7
Tahoma_05_LT
 73
     2
 44
0.6
  0
MTEXT
  5
5F3
330
BFE
100
AcDbEntity
  8
RELJ_AATZ_####_TKST_#
100
AcDbMText
 10
552646.952
 20
335221.734
 30
0.0
 40
0.5
 41
0.0
 46
0.0
 71
     1
 72
     1
  1
 97.97
  7
Tahoma_05_LT
 73
     2
 44
0.6
  0
MTEXT
  5
5F4
330
BFE
100
AcDbEntity
  8
RELJ_AATZ_####_TKST_#
100
AcDbMText
 10
552644.806
 20
335223.862
 30
0.0
 40
0.5
 41
0.0
 46
0.0
 71
     1
 72
     1
  1
 97.96
  7
Tahoma_05_LT
 73
     2
 44
0.6
  0
MTEXT
  5
5F5
330
BFE
100
AcDbEntity
  8
RELJ_AATZ_####_TKST_#
100
AcDbMText
 10
552638.418
 20
335227.316
 30
0.0
 40
0.5
 41
0.0
 46
0.0
 71
     1
 72
     1
  1
 97.85
  7
Tahoma_05_LT
 73
     2
 44
0.6
  0
MTEXT
  5
5F6
330
BFE
100
AcDbEntity
  8
RELJ_AATZ_####_TKST_#
100
AcDbMText
 10
552636.59
 20
335224.622
 30
0.0
 40
0.5
 41
0.0
 46
0.0
 71
     1
 72
     1
  1
 97.74
  7
Tahoma_05_LT
 73
     2
 44
0.6
  0
MTEXT
  5
5F7
330
BFE
100
AcDbEntity
  8
RELJ_AATZ_####_TKST_#
100
AcDbMText
 10
552636.578
 20
335224.71
 30
0.0
 40
0.5
 41
0.0
 46
0.0
 71
     1
 72
     1
  1
 97.86
  7
Tahoma_05_LT
 73
     2
 44
0.6
  0
MTEXT
  5
5F8
330
BFE
100
AcDbEntity
  8
RELJ_AATZ_####_TKST_#
100
AcDbMText
 10
552636.672
 20
335224.728
 30
0.0
 40
0.5
 41
0.0
 46
0.0
 71
     1
 72
     1
  1
 97.86
  7
Tahoma_05_LT
 73
     2
 44
0.6
  0
MTEXT
  5
5F9
330
BFE
100
AcDbEntity
  8
RELJ_AATZ_####_TKST_#
100
AcDbMText
 10
552635.733
 20
335222.616
 30
0.0
 40
0.5
 41
0.0
 46
0.0
 71
     1
 72
     1
  1
 97.75
  7
Tahoma_05_LT
 73
     2
 44
0.6
  0
MTEXT
  5
5FA
330
BFE
100
AcDbEntity
  8
RELJ_AATZ_####_TKST_#
100
AcDbMText
 10
552634.335
 20
335230.913
 30
0.0
 40
0.5
 41
0.0
 46
0.0
 71
     1
 72
     1
  1
 97.91
  7
Tahoma_05_LT
 73
     2
 44
0.6
  0
MTEXT
  5
5FB
330
BFE
100
AcDbEntity
  8
RELJ_AATZ_####_TKST_#
100
AcDbMText
 10
552632.427
 20
335227.774
 30
0.0
 40
0.5
 41
0.0
 46
0.0
 71
     1
 72
     1
  1
 97.86
  7
Tahoma_05_LT
 73
     2
 44
0.6
  0
MTEXT
  5
5FC
330
BFE
100
AcDbEntity
  8
RELJ_AATZ_####_TKST_#
100
AcDbMText
 10
552631.96
 20
335227.793
 30
0.0
 40
0.5
 41
0.0
 46
0.0
 71
     1
 72
     1
  1
 97.83
  7
Tahoma_05_LT
 73
     2
 44
0.6
  0
MTEXT
  5
5FD
330
BFE
100
AcDbEntity
  8
RELJ_AATZ_####_TKST_#
100
AcDbMText
 10
552631.886
 20
335227.66
 30
0.0
 40
0.5
 41
0.0
 46
0.0
 71
     1
 72
     1
  1
 97.72
  7
Tahoma_05_LT
 73
     2
 44
0.6
  0
MTEXT
  5
5FE
330
BFE
100
AcDbEntity
  8
RELJ_AATZ_####_TKST_#
100
AcDbMText
 10
552631.091
 20
335228.291
 30
0.0
 40
0.5
 41
0.0
 46
0.0
 71
     1
 72
     1
  1
 97.72
  7
Tahoma_05_LT
 73
     2
 44
0.6
  0
MTEXT
  5
5FF
330
BFE
100
AcDbEntity
  8
RELJ_AATZ_####_TKST_#
100
AcDbMText
 10
552631.116
 20
335228.303
 30
0.0
 40
0.5
 41
0.0
 46
0.0
 71
     1
 72
     1
  1
 97.75
  7
Tahoma_05_LT
 73
     2
 44
0.6
  0
MTEXT
  5
600
330
BFE
100
AcDbEntity
  8
RELJ_AATZ_####_TKST_#
100
AcDbMText
 10
552631.186
 20
335232.063
 30
0.0
 40
0.5
 41
0.0
 46
0.0
 71
     1
 72
     1
  1
 97.80
  7
Tahoma_05_LT
 73
     2
 44
0.6
  0
MTEXT
  5
601
330
BFE
100
AcDbEntity
  8
RELJ_AATZ_####_TKST_#
100
AcDbMText
 10
552630.252
 20
335232.684
 30
0.0
 40
0.5
 41
0.0
 46
0.0
 71
     1
 72
     1
  1
 97.80
  7
Tahoma_05_LT
 73
     2
 44
0.6
  0
MTEXT
  5
602
330
BFE
100
AcDbEntity
  8
RELJ_AATZ_####_TKST_#
100
AcDbMText
 10
552629.418
 20
335229.437
 30
0.0
 40
0.5
 41
0.0
 46
0.0
 71
     1
 72
     1
  1
 97.73
  7
Tahoma_05_LT
 73
     2
 44
0.6
  0
MTEXT
  5
603
330
BFE
100
AcDbEntity
  8
RELJ_AATZ_####_TKST_#
100
AcDbMText
 10
552628.618
 20
335230.034
 30
0.0
 40
0.5
 41
0.0
 46
0.0
 71
     1
 72
     1
  1
 97.80
  7
Tahoma_05_LT
 73
     2
 44
0.6
  0
MTEXT
  5
604
330
BFE
100
AcDbEntity
  8
RELJ_AATZ_####_TKST_#
100
AcDbMText
 10
552628.533
 20
335229.948
 30
0.0
 40
0.5
 41
0.0
 46
0.0
 71
     1
 72
     1
  1
 97.73
  7
Tahoma_05_LT
 73
     2
 44
0.6
  0
MTEXT
  5
605
330
BFE
100
AcDbEntity
  8
RELJ_AATZ_####_TKST_#
100
AcDbMText
 10
552625.593
 20
335229.935
 30
0.0
 40
0.5
 41
0.0
 46
0.0
 71
     1
 72
     1
  1
 97.59
  7
Tahoma_05_LT
 73
     2
 44
0.6
  0
MTEXT
  5
606
330
BFE
100
AcDbEntity
  8
RELJ_AATZ_####_TKST_#
100
AcDbMText
 10
552621.974
 20
335234.895
 30
0.0
 40
0.5
 41
0.0
 46
0.0
 71
     1
 72
     1
  1
 97.65
  7
Tahoma_05_LT
 73
     2
 44
0.6
  0
MTEXT
  5
607
330
BFE
100
AcDbEntity
  8
RELJ_AATZ_####_TKST_#
100
AcDbMText
 10
552622.045
 20
335234.979
 30
0.0
 40
0.5
 41
0.0
 46
0.0
 71
     1
 72
     1
  1
 97.74
  7
Tahoma_05_LT
 73
     2
 44
0.6
  0
MTEXT
  5
608
330
BFE
100
AcDbEntity
  8
RELJ_AATZ_####_TKST_#
100
AcDbMText
 10
552623.992
 20
335237.421
 30
0.0
 40
0.5
 41
0.0
 46
0.0
 71
     1
 72
     1
  1
 97.74
  7
Tahoma_05_LT
 73
     2
 44
0.6
  0
MTEXT
  5
609
330
BFE
100
AcDbEntity
  8
RELJ_AATZ_####_TKST_#
100
AcDbMText
 10
552625.693
 20
335239.181
 30
0.0
 40
0.5
 41
0.0
 46
0.0
 71
     1
 72
     1
  1
 97.69
  7
Tahoma_05_LT
 73
     2
 44
0.6
  0
MTEXT
  5
60A
330
BFE
100
AcDbEntity
  8
RELJ_AATZ_####_TKST_#
100
AcDbMText
 10
552621.639
 20
335249.313
 30
0.0
 40
0.5
 41
0.0
 46
0.0
 71
     1
 72
     1
  1
 97.27
  7
Tahoma_05_LT
 73
     2
 44
0.6
  0
MTEXT
  5
60B
330
BFE
100
AcDbEntity
  8
RELJ_AATZ_####_TKST_#
100
AcDbMText
 10
552625.144
 20
335247.84
 30
0.0
 40
0.5
 41
0.0
 46
0.0
 71
     1
 72
     1
  1
 97.23
  7
Tahoma_05_LT
 73
     2
 44
0.6
  0
MTEXT
  5
60C
330
BFE
100
AcDbEntity
  8
RELJ_AATZ_####_TKST_#
100
AcDbMText
 10
552628.492
 20
335246.873
 30
0.0
 40
0.5
 41
0.0
 46
0.0
 71
     1
 72
     1
  1
 97.28
  7
Tahoma_05_LT
 73
     2
 44
0.6
  0
MTEXT
  5
60D
330
BFE
100
AcDbEntity
  8
RELJ_AATZ_####_TKST_#
100
AcDbMText
 10
552631.039
 20
335246.184
 30
0.0
 40
0.5
 41
0.0
 46
0.0
 71
     1
 72
     1
  1
 97.28
  7
Tahoma_05_LT
 73
     2
 44
0.6
  0
MTEXT
  5
60E
330
BFE
100
AcDbEntity
  8
RELJ_AATZ_####_TKST_#
100
AcDbMText
 10
552635.42
 20
335244.594
 30
0.0
 40
0.5
 41
0.0
 46
0.0
 71
     1
 72
     1
  1
 97.23
  7
Tahoma_05_LT
 73
     2
 44
0.6
  0
MTEXT
  5
60F
330
BFE
100
AcDbEntity
  8
RELJ_AATZ_####_TKST_#
100
AcDbMText
 10
552641.88
 20
335243.194
 30
0.0
 40
0.5
 41
0.0
 46
0.0
 71
     1
 72
     1
  1
 97.27
  7
Tahoma_05_LT
 73
     2
 44
0.6
  0
MTEXT
  5
610
330
BFE
100
AcDbEntity
  8
RELJ_AATZ_####_TKST_#
100
AcDbMText
 10
552646.415
 20
335241.387
 30
0.0
 40
0.5
 41
0.0
 46
0.0
 71
     1
 72
     1
  1
 97.28
  7
Tahoma_05_LT
 73
     2
 44
0.6
  0
MTEXT
  5
611
330
BFE
100
AcDbEntity
  8
RELJ_AATZ_####_TKST_#
100
AcDbMText
 10
552646.142
 20
335233.075
 30
0.0
 40
0.5
 41
0.0
 46
0.0
 71
     1
 72
     1
  1
 97.52
  7
Tahoma_05_LT
 73
     2
 44
0.6
  0
MTEXT
  5
612
330
BFE
100
AcDbEntity
  8
RELJ_AATZ_####_TKST_#
100
AcDbMText
 10
552641.078
 20
335235.667
 30
0.0
 40
0.5
 41
0.0
 46
0.0
 71
     1
 72
     1
  1
 97.42
  7
Tahoma_05_LT
 73
     2
 44
0.6
  0
MTEXT
  5
613
330
BFE
100
AcDbEntity
  8
RELJ_AATZ_####_TKST_#
100
AcDbMText
 10
552634.497
 20
335235.69
 30
0.0
 40
0.5
 41
0.0
 46
0.0
 71
     1
 72
     1
  1
 97.55
  7
Tahoma_05_LT
 73
     2
 44
0.6
  0
MTEXT
  5
614
330
BFE
100
AcDbEntity
  8
RELJ_AATZ_####_TKST_#
100
AcDbMText
 10
552631.923
 20
335239.501
 30
0.0
 40
0.5
 41
0.0
 46
0.0
 71
     1
 72
     1
  1
 97.50
  7
Tahoma_05_LT
 73
     2
 44
0.6
  0
MTEXT
  5
615
330
BFE
100
AcDbEntity
  8
RELJ_AATZ_####_TKST_#
100
AcDbMText
 10
552622.589
 20
335241.758
 30
0.0
 40
0.5
 41
0.0
 46
0.0
 71
     1
 72
     1
  1
 97.55
  7
Tahoma_05_LT
 73
     2
 44
0.6
  0
MTEXT
  5
616
330
BFE
100
AcDbEntity
  8
RELJ_AATZ_####_TKST_#
100
AcDbMText
 10
552621.051
 20
335242.781
 30
0.0
 40
0.5
 41
0.0
 46
0.0
 71
     1
 72
     1
  1
 97.54
  7
Tahoma_05_LT
 73
     2
 44
0.6
  0
MTEXT
  5
617
330
BFE
100
AcDbEntity
  8
RELJ_AATZ_####_TKST_#
100
AcDbMText
 10
552619.293
 20
335243.862
 30
0.0
 40
0.5
 41
0.0
 46
0.0
 71
     1
 72
     1
  1
 97.53
  7
Tahoma_05_LT
 73
     2
 44
0.6
  0
MTEXT
  5
618
330
BFE
100
AcDbEntity
  8
RELJ_AATZ_####_TKST_#
100
AcDbMText
 10
552617.392
 20
335245.04
 30
0.0
 40
0.5
 41
0.0
 46
0.0
 71
     1
 72
     1
  1
 97.53
  7
Tahoma_05_LT
 73
     2
 44
0.6
  0
MTEXT
  5
619
330
BFE
100
AcDbEntity
  8
RELJ_AATZ_####_TKST_#
100
AcDbMText
 10
552615.307
 20
335246.65
 30
0.0
 40
0.5
 41
0.0
 46
0.0
 71
     1
 72
     1
  1
 97.50
  7
Tahoma_05_LT
 73
     2
 44
0.6
  0
MTEXT
  5
61A
330
BFE
100
AcDbEntity
  8
RELJ_AATZ_####_TKST_#
100
AcDbMText
 10
552613.305
 20
335248.198
 30
0.0
 40
0.5
 41
0.0
 46
0.0
 71
     1
 72
     1
  1
 97.52
  7
Tahoma_05_LT
 73
     2
 44
0.6
  0
MTEXT
  5
61B
330
BFE
100
AcDbEntity
  8
RELJ_AATZ_####_TKST_#
100
AcDbMText
 10
552611.221
 20
335249.945
 30
0.0
 40
0.5
 41
0.0
 46
0.0
 71
     1
 72
     1
  1
 97.52
  7
Tahoma_05_LT
 73
     2
 44
0.6
  0
MTEXT
  5
61C
330
BFE
100
AcDbEntity
  8
RELJ_AATZ_####_TKST_#
100
AcDbMText
 10
552624.39
 20
335244.395
 30
0.0
 40
0.5
 41
0.0
 46
0.0
 71
     1
 72
     1
  1
 97.39
  7
Tahoma_05_LT
 73
     2
 44
0.6
  0
MTEXT
  5
61D
330
BFE
100
AcDbEntity
  8
RELJ_AATZ_####_TKST_#
100
AcDbMText
 10
552610.091
 20
335253.452
 30
0.0
 40
0.5
 41
0.0
 46
0.0
 71
     1
 72
     1
  1
 97.41
  7
Tahoma_05_LT
 73
     2
 44
0.6
  0
MTEXT
  5
61E
330
BFE
100
AcDbEntity
  8
RELJ_AATZ_####_TKST_#
100
AcDbMText
 10
552646.338
 20
335267.057
 30
0.0
 40
0.5
 41
0.0
 46
0.0
 71
     1
 72
     1
  1
 97.09
  7
Tahoma_05_LT
 73
     2
 44
0.6
  0
MTEXT
  5
61F
330
BFE
100
AcDbEntity
  8
RELJ_AATZ_####_TKST_#
100
AcDbMText
 10
552629.571
 20
335267.103
 30
0.0
 40
0.5
 41
0.0
 46
0.0
 71
     1
 72
     1
  1
 97.07
  7
Tahoma_05_LT
 73
     2
 44
0.6
  0
MTEXT
  5
620
330
BFE
100
AcDbEntity
  8
RELJ_AATZ_####_TKST_#
100
AcDbMText
 10
552630.847
 20
335273.362
 30
0.0
 40
0.5
 41
0.0
 46
0.0
 71
     1
 72
     1
  1
 97.09
  7
Tahoma_05_LT
 73
     2
 44
0.6
  0
MTEXT
  5
621
330
BFE
100
AcDbEntity
  8
RELJ_AATZ_####_TKST_#
100
AcDbMText
 10
552625.536
 20
335271.199
 30
0.0
 40
0.5
 41
0.0
 46
0.0
 71
     1
 72
     1
  1
 97.08
  7
Tahoma_05_LT
 73
     2
 44
0.6
  0
MTEXT
  5
622
330
BFE
100
AcDbEntity
  8
RELJ_AATZ_####_TKST_#
100
AcDbMText
 10
552625.646
 20
335274.142
 30
0.0
 40
0.5
 41
0.0
 46
0.0
 71
     1
 72
     1
  1
 97.14
  7
Tahoma_05_LT
 73
     2
 44
0.6
  0
MTEXT
  5
623
330
BFE
100
AcDbEntity
  8
RELJ_AATZ_####_TKST_#
100
AcDbMText
 10
552621.835
 20
335274.161
 30
0.0
 40
0.5
 41
0.0
 46
0.0
 71
     1
 72
     1
  1
 97.04
  7
Tahoma_05_LT
 73
     2
 44
0.6
  0
MTEXT
  5
624
330
BFE
100
AcDbEntity
  8
RELJ_AATZ_####_TKST_#
100
AcDbMText
 10
552620.408
 20
335272.122
 30
0.0
 40
0.5
 41
0.0
 46
0.0
 71
     1
 72
     1
  1
 97.09
  7
Tahoma_05_LT
 73
     2
 44
0.6
  0
MTEXT
  5
625
330
BFE
100
AcDbEntity
  8
RELJ_AATZ_####_TKST_#
100
AcDbMText
 10
552619.246
 20
335274.694
 30
0.0
 40
0.5
 41
0.0
 46
0.0
 71
     1
 72
     1
  1
 97.06
  7
Tahoma_05_LT
 73
     2
 44
0.6
  0
MTEXT
  5
626
330
BFE
100
AcDbEntity
  8
RELJ_AATZ_####_TKST_#
100
AcDbMText
 10
552615.404
 20
335275.05
 30
0.0
 40
0.5
 41
0.0
 46
0.0
 71
     1
 72
     1
  1
 97.08
  7
Tahoma_05_LT
 73
     2
 44
0.6
  0
MTEXT
  5
627
330
BFE
100
AcDbEntity
  8
RELJ_AATZ_####_TKST_#
100
AcDbMText
 10
552614.614
 20
335274.526
 30
0.0
 40
0.5
 41
0.0
 46
0.0
 71
     1
 72
     1
  1
 97.07
  7
Tahoma_05_LT
 73
     2
 44
0.6
  0
MTEXT
  5
628
330
BFE
100
AcDbEntity
  8
RELJ_AATZ_####_TKST_#
100
AcDbMText
 10
552610.661
 20
335270.175
 30
0.0
 40
0.5
 41
0.0
 46
0.0
 71
     1
 72
     1
  1
 97.16
  7
Tahoma_05_LT
 73
     2
 44
0.6
  0
MTEXT
  5
629
330
BFE
100
AcDbEntity
  8
RELJ_AATZ_####_TKST_#
100
AcDbMText
 10
552611.86
 20
335261.774
 30
0.0
 40
0.5
 41
0.0
 46
0.0
 71
     1
 72
     1
  1
 97.22
  7
Tahoma_05_LT
 73
     2
 44
0.6
  0
MTEXT
  5
62A
330
BFE
100
AcDbEntity
  8
RELJ_AATZ_####_TKST_#
100
AcDbMText
 10
552611.826
 20
335261.525
 30
0.0
 40
0.5
 41
0.0
 46
0.0
 71
     1
 72
     1
  1
 97.06
  7
Tahoma_05_LT
 73
     2
 44
0.6
  0
MTEXT
  5
62B
330
BFE
100
AcDbEntity
  8
RELJ_AATZ_####_TKST_#
100
AcDbMText
 10
552614.854
 20
335244.323
 30
0.0
 40
0.5
 41
0.0
 46
0.0
 71
     1
 72
     1
  1
 97.71
  7
Tahoma_05_LT
 73
     2
 44
0.6
  0
MTEXT
  5
62C
330
BFE
100
AcDbEntity
  8
RELJ_AATZ_####_TKST_#
100
AcDbMText
 10
552612.725
 20
335241.88
 30
0.0
 40
0.5
 41
0.0
 46
0.0
 71
     1
 72
     1
  1
 97.62
  7
Tahoma_05_LT
 73
     2
 44
0.6
  0
MTEXT
  5
62D
330
BFE
100
AcDbEntity
  8
RELJ_AATZ_####_TKST_#
100
AcDbMText
 10
552612.809
 20
335241.988
 30
0.0
 40
0.5
 41
0.0
 46
0.0
 71
     1
 72
     1
  1
 97.70
  7
Tahoma_05_LT
 73
     2
 44
0.6
  0
MTEXT
  5
62E
330
BFE
100
AcDbEntity
  8
RELJ_AATZ_####_TKST_#
100
AcDbMText
 10
552600.901
 20
335250.93
 30
0.0
 40
0.5
 41
0.0
 46
0.0
 71
     1
 72
     1
  1
 97.70
  7
Tahoma_05_LT
 73
     2
 44
0.6
  0
MTEXT
  5
62F
330
BFE
100
AcDbEntity
  8
RELJ_AATZ_####_TKST_#
100
AcDbMText
 10
552600.815
 20
335250.818
 30
0.0
 40
0.5
 41
0.0
 46
0.0
 71
     1
 72
     1
  1
 97.59
  7
Tahoma_05_LT
 73
     2
 44
0.6
  0
MTEXT
  5
630
330
BFE
100
AcDbEntity
  8
RELJ_AATZ_####_TKST_#
100
AcDbMText
 10
552600.709
 20
335250.111
 30
0.0
 40
0.5
 41
0.0
 46
0.0
 71
     1
 72
     1
  1
 97.59
  7
Tahoma_05_LT
 73
     2
 44
0.6
  0
MTEXT
  5
631
330
BFE
100
AcDbEntity
  8
RELJ_AATZ_####_TKST_#
100
AcDbMText
 10
552600.179
 20
335251.576
 30
0.0
 40
0.5
 41
0.0
 46
0.0
 71
     1
 72
     1
  1
 97.56
  7
Tahoma_05_LT
 73
     2
 44
0.6
  0
MTEXT
  5
632
330
BFE
100
AcDbEntity
  8
RELJ_AATZ_####_TKST_#
100
AcDbMText
 10
552599.712
 20
335252.412
 30
0.0
 40
0.5
 41
0.0
 46
0.0
 71
     1
 72
     1
  1
 97.55
  7
Tahoma_05_LT
 73
     2
 44
0.6
  0
MTEXT
  5
633
330
BFE
100
AcDbEntity
  8
RELJ_AATZ_####_TKST_#
100
AcDbMText
 10
552599.851
 20
335252.521
 30
0.0
 40
0.5
 41
0.0
 46
0.0
 71
     1
 72
     1
  1
 97.56
  7
Tahoma_05_LT
 73
     2
 44
0.6
  0
MTEXT
  5
634
330
BFE
100
AcDbEntity
  8
RELJ_AATZ_####_TKST_#
100
AcDbMText
 10
552599.591
 20
335253.442
 30
0.0
 40
0.5
 41
0.0
 46
0.0
 71
     1
 72
     1
  1
 97.52
  7
Tahoma_05_LT
 73
     2
 44
0.6
  0
MTEXT
  5
635
330
BFE
100
AcDbEntity
  8
RELJ_AATZ_####_TKST_#
100
AcDbMText
 10
552599.918
 20
335254.355
 30
0.0
 40
0.5
 41
0.0
 46
0.0
 71
     1
 72
     1
  1
 97.46
  7
Tahoma_05_LT
 73
     2
 44
0.6
  0
MTEXT
  5
636
330
BFE
100
AcDbEntity
  8
RELJ_AATZ_####_TKST_#
100
AcDbMText
 10
552600.549
 20
335255.152
 30
0.0
 40
0.5
 41
0.0
 46
0.0
 71
     1
 72
     1
  1
 97.39
  7
Tahoma_05_LT
 73
     2
 44
0.6
  0
MTEXT
  5
637
330
BFE
100
AcDbEntity
  8
RELJ_AATZ_####_TKST_#
100
AcDbMText
 10
552600.642
 20
335255.031
 30
0.0
 40
0.5
 41
0.0
 46
0.0
 71
     1
 72
     1
  1
 97.42
  7
Tahoma_05_LT
 73
     2
 44
0.6
  0
MTEXT
  5
638
330
BFE
100
AcDbEntity
  8
RELJ_AATZ_####_TKST_#
100
AcDbMText
 10
552603.044
 20
335253.202
 30
0.0
 40
0.5
 41
0.0
 46
0.0
 71
     1
 72
     1
  1
 97.68
  7
Tahoma_05_LT
 73
     2
 44
0.6
  0
MTEXT
  5
639
330
BFE
100
AcDbEntity
  8
RELJ_AATZ_####_TKST_#
100
AcDbMText
 10
552601.63
 20
335255.651
 30
0.0
 40
0.5
 41
0.0
 46
0.0
 71
     1
 72
     1
  1
 97.43
  7
Tahoma_05_LT
 73
     2
 44
0.6
  0
MTEXT
  5
63A
330
BFE
100
AcDbEntity
  8
RELJ_AATZ_####_TKST_#
100
AcDbMText
 10
552601.523
 20
335255.823
 30
0.0
 40
0.5
 41
0.0
 46
0.0
 71
     1
 72
     1
  1
 97.31
  7
Tahoma_05_LT
 73
     2
 44
0.6
  0
MTEXT
  5
63B
330
BFE
100
AcDbEntity
  8
RELJ_AATZ_####_TKST_#
100
AcDbMText
 10
552596.766
 20
335258.427
 30
0.0
 40
0.5
 41
0.0
 46
0.0
 71
     1
 72
     1
  1
 97.36
  7
Tahoma_05_LT
 73
     2
 44
0.6
  0
MTEXT
  5
63C
330
BFE
100
AcDbEntity
  8
RELJ_AATZ_####_TKST_#
100
AcDbMText
 10
552596.704
 20
335258.58
 30
0.0
 40
0.5
 41
0.0
 46
0.0
 71
     1
 72
     1
  1
 97.42
  7
Tahoma_05_LT
 73
     2
 44
0.6
  0
MTEXT
  5
63D
330
BFE
100
AcDbEntity
  8
RELJ_AATZ_####_TKST_#
100
AcDbMText
 10
552596.105
 20
335258.479
 30
0.0
 40
0.5
 41
0.0
 46
0.0
 71
     1
 72
     1
  1
 97.41
  7
Tahoma_05_LT
 73
     2
 44
0.6
  0
MTEXT
  5
63E
330
BFE
100
AcDbEntity
  8
RELJ_AATZ_####_TKST_#
100
AcDbMText
 10
552595.735
 20
335258.402
 30
0.0
 40
0.5
 41
0.0
 46
0.0
 71
     1
 72
     1
  1
 97.40
  7
Tahoma_05_LT
 73
     2
 44
0.6
  0
MTEXT
  5
63F
330
BFE
100
AcDbEntity
  8
RELJ_AATZ_####_TKST_#
100
AcDbMText
 10
552595.745
 20
335258.267
 30
0.0
 40
0.5
 41
0.0
 46
0.0
 71
     1
 72
     1
  1
 97.38
  7
Tahoma_05_LT
 73
     2
 44
0.6
  0
MTEXT
  5
640
330
BFE
100
AcDbEntity
  8
RELJ_AATZ_####_TKST_#
100
AcDbMText
 10
552593.771
 20
335258.015
 30
0.0
 40
0.5
 41
0.0
 46
0.0
 71
     1
 72
     1
  1
 97.43
  7
Tahoma_05_LT
 73
     2
 44
0.6
  0
MTEXT
  5
641
330
BFE
100
AcDbEntity
  8
RELJ_AATZ_####_TKST_#
100
AcDbMText
 10
552591.99
 20
335258.138
 30
0.0
 40
0.5
 41
0.0
 46
0.0
 71
     1
 72
     1
  1
 97.47
  7
Tahoma_05_LT
 73
     2
 44
0.6
  0
MTEXT
  5
642
330
BFE
100
AcDbEntity
  8
RELJ_AATZ_####_TKST_#
100
AcDbMText
 10
552591.525
 20
335258.309
 30
0.0
 40
0.5
 41
0.0
 46
0.0
 71
     1
 72
     1
  1
 97.49
  7
Tahoma_05_LT
 73
     2
 44
0.6
  0
MTEXT
  5
643
330
BFE
100
AcDbEntity
  8
RELJ_AATZ_####_TKST_#
100
AcDbMText
 10
552591.548
 20
335258.393
 30
0.0
 40
0.5
 41
0.0
 46
0.0
 71
     1
 72
     1
  1
 97.51
  7
Tahoma_05_LT
 73
     2
 44
0.6
  0
MTEXT
  5
644
330
BFE
100
AcDbEntity
  8
RELJ_AATZ_####_TKST_#
100
AcDbMText
 10
552590.762
 20
335258.859
 30
0.0
 40
0.5
 41
0.0
 46
0.0
 71
     1
 72
     1
  1
 97.61
  7
Tahoma_05_LT
 73
     2
 44
0.6
  0
MTEXT
  5
645
330
BFE
100
AcDbEntity
  8
RELJ_AATZ_####_TKST_#
100
AcDbMText
 10
552590.657
 20
335258.767
 30
0.0
 40
0.5
 41
0.0
 46
0.0
 71
     1
 72
     1
  1
 97.52
  7
Tahoma_05_LT
 73
     2
 44
0.6
  0
MTEXT
  5
646
330
BFE
100
AcDbEntity
  8
RELJ_AATZ_####_TKST_#
100
AcDbMText
 10
552580.586
 20
335267.034
 30
0.0
 40
0.5
 41
0.0
 46
0.0
 71
     1
 72
     1
  1
 97.46
  7
Tahoma_05_LT
 73
     2
 44
0.6
  0
MTEXT
  5
647
330
BFE
100
AcDbEntity
  8
RELJ_AATZ_####_TKST_#
100
AcDbMText
 10
552580.696
 20
335267.158
 30
0.0
 40
0.5
 41
0.0
 46
0.0
 71
     1
 72
     1
  1
 97.58
  7
Tahoma_05_LT
 73
     2
 44
0.6
  0
MTEXT
  5
648
330
BFE
100
AcDbEntity
  8
RELJ_AATZ_####_TKST_#
100
AcDbMText
 10
552582.722
 20
335269.452
 30
0.0
 40
0.5
 41
0.0
 46
0.0
 71
     1
 72
     1
  1
 97.57
  7
Tahoma_05_LT
 73
     2
 44
0.6
  0
MTEXT
  5
649
330
BFE
100
AcDbEntity
  8
RELJ_AATZ_####_TKST_#
100
AcDbMText
 10
552579.953
 20
335268.892
 30
0.0
 40
0.5
 41
0.0
 46
0.0
 71
     1
 72
     1
  1
 97.46
  7
Tahoma_05_LT
 73
     2
 44
0.6
  0
MTEXT
  5
64A
330
BFE
100
AcDbEntity
  8
RELJ_AATZ_####_TKST_#
100
AcDbMText
 10
552580.008
 20
335267.909
 30
0.0
 40
0.5
 41
0.0
 46
0.0
 71
     1
 72
     1
  1
 97.46
  7
Tahoma_05_LT
 73
     2
 44
0.6
  0
MTEXT
  5
64B
330
BFE
100
AcDbEntity
  8
RELJ_AATZ_####_TKST_#
100
AcDbMText
 10
552580.155
 20
335267.956
 30
0.0
 40
0.5
 41
0.0
 46
0.0
 71
     1
 72
     1
  1
 97.48
  7
Tahoma_05_LT
 73
     2
 44
0.6
  0
MTEXT
  5
64C
330
BFE
100
AcDbEntity
  8
RELJ_AATZ_####_TKST_#
100
AcDbMText
 10
552580.227
 20
335269.835
 30
0.0
 40
0.5
 41
0.0
 46
0.0
 71
     1
 72
     1
  1
 97.43
  7
Tahoma_05_LT
 73
     2
 44
0.6
  0
MTEXT
  5
64D
330
BFE
100
AcDbEntity
  8
RELJ_AATZ_####_TKST_#
100
AcDbMText
 10
552580.778
 20
335270.621
 30
0.0
 40
0.5
 41
0.0
 46
0.0
 71
     1
 72
     1
  1
 97.40
  7
Tahoma_05_LT
 73
     2
 44
0.6
  0
MTEXT
  5
64E
330
BFE
100
AcDbEntity
  8
RELJ_AATZ_####_TKST_#
100
AcDbMText
 10
552580.885
 20
335270.585
 30
0.0
 40
0.5
 41
0.0
 46
0.0
 71
     1
 72
     1
  1
 97.43
  7
Tahoma_05_LT
 73
     2
 44
0.6
  0
MTEXT
  5
64F
330
BFE
100
AcDbEntity
  8
RELJ_AATZ_####_TKST_#
100
AcDbMText
 10
552581.107
 20
335270.806
 30
0.0
 40
0.5
 41
0.0
 46
0.0
 71
     1
 72
     1
  1
 97.41
  7
Tahoma_05_LT
 73
     2
 44
0.6
  0
MTEXT
  5
650
330
BFE
100
AcDbEntity
  8
RELJ_AATZ_####_TKST_#
100
AcDbMText
 10
552582.512
 20
335272.645
 30
0.0
 40
0.5
 41
0.0
 46
0.0
 71
     1
 72
     1
  1
 97.32
  7
Tahoma_05_LT
 73
     2
 44
0.6
  0
MTEXT
  5
651
330
BFE
100
AcDbEntity
  8
RELJ_AATZ_####_TKST_#
100
AcDbMText
 10
552582.625
 20
335272.549
 30
0.0
 40
0.5
 41
0.0
 46
0.0
 71
     1
 72
     1
  1
 97.41
  7
Tahoma_05_LT
 73
     2
 44
0.6
  0
MTEXT
  5
652
330
BFE
100
AcDbEntity
  8
RELJ_AATZ_####_TKST_#
100
AcDbMText
 10
552586.506
 20
335274.65
 30
0.0
 40
0.5
 41
0.0
 46
0.0
 71
     1
 72
     1
  1
 97.36
  7
Tahoma_05_LT
 73
     2
 44
0.6
  0
MTEXT
  5
653
330
BFE
100
AcDbEntity
  8
RELJ_AATZ_####_TKST_#
100
AcDbMText
 10
552587.904
 20
335276.007
 30
0.0
 40
0.5
 41
0.0
 46
0.0
 71
     1
 72
     1
  1
 97.33
  7
Tahoma_05_LT
 73
     2
 44
0.6
  0
MTEXT
  5
654
330
BFE
100
AcDbEntity
  8
RELJ_AATZ_####_TKST_#
100
AcDbMText
 10
552593.754
 20
335271.224
 30
0.0
 40
0.5
 41
0.0
 46
0.0
 71
     1
 72
     1
  1
 97.26
  7
Tahoma_05_LT
 73
     2
 44
0.6
  0
MTEXT
  5
655
330
BFE
100
AcDbEntity
  8
RELJ_AATZ_####_TKST_#
100
AcDbMText
 10
552597.026
 20
335276.639
 30
0.0
 40
0.5
 41
0.0
 46
0.0
 71
     1
 72
     1
  1
 97.14
  7
Tahoma_05_LT
 73
     2
 44
0.6
  0
MTEXT
  5
656
330
BFE
100
AcDbEntity
  8
RELJ_AATZ_####_TKST_#
100
AcDbMText
 10
552592.508
 20
335283.67
 30
0.0
 40
0.5
 41
0.0
 46
0.0
 71
     1
 72
     1
  1
 97.15
  7
Tahoma_05_LT
 73
     2
 44
0.6
  0
MTEXT
  5
657
330
BFE
100
AcDbEntity
  8
RELJ_AATZ_####_TKST_#
100
AcDbMText
 10
552592.391
 20
335283.806
 30
0.0
 40
0.5
 41
0.0
 46
0.0
 71
     1
 72
     1
  1
 96.99
  7
Tahoma_05_LT
 73
     2
 44
0.6
  0
MTEXT
  5
658
330
BFE
100
AcDbEntity
  8
RELJ_AATZ_####_TKST_#
100
AcDbMText
 10
552602.536
 20
335295.016
 30
0.0
 40
0.5
 41
0.0
 46
0.0
 71
     1
 72
     1
  1
 96.66
  7
Tahoma_05_LT
 73
     2
 44
0.6
  0
MTEXT
  5
659
330
BFE
100
AcDbEntity
  8
RELJ_AATZ_####_TKST_#
100
AcDbMText
 10
552602.602
 20
335294.971
 30
0.0
 40
0.5
 41
0.0
 46
0.0
 71
     1
 72
     1
  1
 96.79
  7
Tahoma_05_LT
 73
     2
 44
0.6
  0
MTEXT
  5
65A
330
BFE
100
AcDbEntity
  8
RELJ_AATZ_####_TKST_#
100
AcDbMText
 10
552603.363
 20
335295.667
 30
0.0
 40
0.5
 41
0.0
 46
0.0
 71
     1
 72
     1
  1
 96.66
  7
Tahoma_05_LT
 73
     2
 44
0.6
  0
MTEXT
  5
65B
330
BFE
100
AcDbEntity
  8
RELJ_AATZ_####_TKST_#
100
AcDbMText
 10
552604.322
 20
335296.095
 30
0.0
 40
0.5
 41
0.0
 46
0.0
 71
     1
 72
     1
  1
 96.65
  7
Tahoma_05_LT
 73
     2
 44
0.6
  0
MTEXT
  5
65C
330
BFE
100
AcDbEntity
  8
RELJ_AATZ_####_TKST_#
100
AcDbMText
 10
552605.36
 20
335296.17
 30
0.0
 40
0.5
 41
0.0
 46
0.0
 71
     1
 72
     1
  1
 96.66
  7
Tahoma_05_LT
 73
     2
 44
0.6
  0
MTEXT
  5
65D
330
BFE
100
AcDbEntity
  8
RELJ_AATZ_####_TKST_#
100
AcDbMText
 10
552605.355
 20
335296.041
 30
0.0
 40
0.5
 41
0.0
 46
0.0
 71
     1
 72
     1
  1
 96.78
  7
Tahoma_05_LT
 73
     2
 44
0.6
  0
MTEXT
  5
65E
330
BFE
100
AcDbEntity
  8
RELJ_AATZ_####_TKST_#
100
AcDbMText
 10
552618.33
 20
335294.369
 30
0.0
 40
0.5
 41
0.0
 46
0.0
 71
     1
 72
     1
  1
 96.72
  7
Tahoma_05_LT
 73
     2
 44
0.6
  0
MTEXT
  5
65F
330
BFE
100
AcDbEntity
  8
RELJ_AATZ_####_TKST_#
100
AcDbMText
 10
552618.342
 20
335294.268
 30
0.0
 40
0.5
 41
0.0
 46
0.0
 71
     1
 72
     1
  1
 96.86
  7
Tahoma_05_LT
 73
     2
 44
0.6
  0
MTEXT
  5
660
330
BFE
100
AcDbEntity
  8
RELJ_AATZ_####_TKST_#
100
AcDbMText
 10
552616.166
 20
335290.069
 30
0.0
 40
0.5
 41
0.0
 46
0.0
 71
     1
 72
     1
  1
 96.90
  7
Tahoma_05_LT
 73
     2
 44
0.6
  0
MTEXT
  5
661
330
BFE
100
AcDbEntity
  8
RELJ_AATZ_####_TKST_#
100
AcDbMText
 10
552616.09
 20
335288.756
 30
0.0
 40
0.5
 41
0.0
 46
0.0
 71
     1
 72
     1
  1
 96.98
  7
Tahoma_05_LT
 73
     2
 44
0.6
  0
MTEXT
  5
662
330
BFE
100
AcDbEntity
  8
RELJ_AATZ_####_TKST_#
100
AcDbMText
 10
552615.573
 20
335282.918
 30
0.0
 40
0.5
 41
0.0
 46
0.0
 71
     1
 72
     1
  1
 96.97
  7
Tahoma_05_LT
 73
     2
 44
0.6
  0
MTEXT
  5
663
330
BFE
100
AcDbEntity
  8
RELJ_AATZ_####_TKST_#
100
AcDbMText
 10
552609.72
 20
335282.871
 30
0.0
 40
0.5
 41
0.0
 46
0.0
 71
     1
 72
     1
  1
 96.94
  7
Tahoma_05_LT
 73
     2
 44
0.6
  0
MTEXT
  5
664
330
BFE
100
AcDbEntity
  8
RELJ_AATZ_####_TKST_#
100
AcDbMText
 10
552606.802
 20
335286.974
 30
0.0
 40
0.5
 41
0.0
 46
0.0
 71
     1
 72
     1
  1
 97.00
  7
Tahoma_05_LT
 73
     2
 44
0.6
  0
MTEXT
  5
665
330
BFE
100
AcDbEntity
  8
RELJ_AATZ_####_TKST_#
100
AcDbMText
 10
552598.746
 20
335272.88
 30
0.0
 40
0.5
 41
0.0
 46
0.0
 71
     1
 72
     1
  1
 97.15
  7
Tahoma_05_LT
 73
     2
 44
0.6
  0
MTEXT
  5
666
330
BFE
100
AcDbEntity
  8
RELJ_AATZ_####_TKST_#
100
AcDbMText
 10
552603.378
 20
335277.899
 30
0.0
 40
0.5
 41
0.0
 46
0.0
 71
     1
 72
     1
  1
 97.07
  7
Tahoma_05_LT
 73
     2
 44
0.6
  0
TEXT
  5
667
330
BFE
100
AcDbEntity
  8
GEOD_ELEM_####_TKST_#
100
AcDbText
 10
552544.22
 20
335299.102
 30
0.0
 40
0.25
  1
101 
 50
340.0
100
AcDbText
  0
TEXT
  5
668
330
BFE
100
AcDbEntity
  8
2
 62
     7
100
AcDbText
 10
552676.027
 20
335297.4
 30
0.0
 40
0.25
  1
AM
 50
45.0
100
AcDbText
  0
TEXT
  5
669
330
BFE
100
AcDbEntity
  8
2
 62
     7
100
AcDbText
 10
552679.753
 20
335296.685
 30
0.0
 40
0.25
  1
AMLB
 50
45.0
100
AcDbText
  0
TEXT
  5
66A
330
BFE
100
AcDbEntity
  8
2
 62
     7
100
AcDbText
 10
552679.072
 20
335290.342
 30
0.0
 40
0.25
  1
AMLB
 50
45.0
100
AcDbText
  0
TEXT
  5
66B
330
BFE
100
AcDbEntity
  8
2
 62
     7
100
AcDbText
 10
552616.166
 20
335290.069
 30
0.0
 40
0.25
  1
AKA 
 50
45.0
100
AcDbText
  0
TEXT
  5
66C
330
BFE
100
AcDbEntity
  8
2
 62
     7
100
AcDbText
 10
552678.508
 20
335282.598
 30
0.0
 40
0.25
  1
AMLB
 50
45.0
100
AcDbText
  0
TEXT
  5
66D
330
BFE
100
AcDbEntity
  8
2
 62
     7
100
AcDbText
 10
552669.238
 20
335278.632
 30
0.0
 40
0.25
  1
BRLB
 50
45.0
100
AcDbText
  0
TEXT
  5
66E
330
BFE
100
AcDbEntity
  8
2
 62
     7
100
AcDbText
 10
552669.694
 20
335280.136
 30
0.0
 40
0.25
  1
BRLB
 50
45.0
100
AcDbText
  0
TEXT
  5
66F
330
BFE
100
AcDbEntity
  8
2
 62
     7
100
AcDbText
 10
552671.041
 20
335281.411
 30
0.0
 40
0.25
  1
AMLBBEI 
 50
45.0
100
AcDbText
  0
TEXT
  5
670
330
BFE
100
AcDbEntity
  8
2
 62
     7
100
AcDbText
 10
552670.357
 20
335281.071
 30
0.0
 40
0.25
  1
BRLBAM
 50
45.0
100
AcDbText
  0
TEXT
  5
671
330
BFE
100
AcDbEntity
  8
2
 62
     7
100
AcDbText
 10
552586.506
 20
335274.65
 30
0.0
 40
0.25
  1
AKA 
 50
45.0
100
AcDbText
  0
TEXT
  5
672
330
BFE
100
AcDbEntity
  8
2
 62
     7
100
AcDbText
 10
552614.614
 20
335274.526
 30
0.0
 40
0.25
  1
AKA 
 50
45.0
100
AcDbText
  0
TEXT
  5
673
330
BFE
100
AcDbEntity
  8
2
 62
     7
100
AcDbText
 10
552668.945
 20
335273.542
 30
0.0
 40
0.25
  1
LBZA
 50
45.0
100
AcDbText
  0
TEXT
  5
674
330
BFE
100
AcDbEntity
  8
2
 62
     7
100
AcDbText
 10
552668.861
 20
335274.658
 30
0.0
 40
0.25
  1
BRLB
 50
45.0
100
AcDbText
  0
TEXT
  5
675
330
BFE
100
AcDbEntity
  8
2
 62
     7
100
AcDbText
 10
552615.334
 20
335265.708
 30
0.0
 40
0.25
  1
AKA 
 50
45.0
100
AcDbText
  0
TEXT
  5
676
330
BFE
100
AcDbEntity
  8
2
 62
     7
100
AcDbText
 10
552626.25
 20
335265.426
 30
0.0
 40
0.25
  1
AKA 
 50
45.0
100
AcDbText
  0
TEXT
  5
677
330
BFE
100
AcDbEntity
  8
2
 62
     7
100
AcDbText
 10
552663.865
 20
335260.232
 30
0.0
 40
0.25
  1
AKA 
 50
45.0
100
AcDbText
  0
TEXT
  5
678
330
BFE
100
AcDbEntity
  8
2
 62
     7
100
AcDbText
 10
552656.41
 20
335257.512
 30
0.0
 40
0.25
  1
AKA 
 50
45.0
100
AcDbText
  0
TEXT
  5
679
330
BFE
100
AcDbEntity
  8
2
 62
     7
100
AcDbText
 10
552642.422
 20
335259.242
 30
0.0
 40
0.25
  1
AKA 
 50
45.0
100
AcDbText
  0
TEXT
  5
67A
330
BFE
100
AcDbEntity
  8
2
 62
     7
100
AcDbText
 10
552600.709
 20
335250.111
 30
0.0
 40
0.25
  1
AKA 
 50
45.0
100
AcDbText
  0
TEXT
  5
67B
330
BFE
100
AcDbEntity
  8
2
 62
     7
100
AcDbText
 10
552646.142
 20
335233.075
 30
0.0
 40
0.25
  1
AKA 
 50
45.0
100
AcDbText
  0
TEXT
  5
67C
330
BFE
100
AcDbEntity
  8
2
 62
     7
100
AcDbText
 10
552625.593
 20
335229.935
 30
0.0
 40
0.25
  1
GUL 
 50
45.0
100
AcDbText
  0
TEXT
  5
67D
330
BFE
100
AcDbEntity
  8
2
 62
     7
100
AcDbText
 10
552635.733
 20
335222.616
 30
0.0
 40
0.25
  1
AKA 
 50
45.0
100
AcDbText
  0
TEXT
  5
67E
330
BFE
100
AcDbEntity
  8
GEOD_ELEM_####_TKST_#
100
AcDbText
 10
552644.584
 20
335219.553
 30
0.0
 40
0.25
  1
102 
 50
340.0
100
AcDbText
  0
TEXT
  5
67F
330
BFE
100
AcDbEntity
  8
2
 62
     7
100
AcDbText
 10
552652.976
 20
335221.387
 30
0.0
 40
0.25
  1
LBJAUNA 
 50
45.0
100
AcDbText
  0
TEXT
  5
680
330
BFE
100
AcDbEntity
  8
2
 62
     7
100
AcDbText
 10
552652.796
 20
335219.364
 30
0.0
 40
0.25
  1
LBJAUNA 
 50
45.0
100
AcDbText
  0
TEXT
  5
681
330
BFE
100
AcDbEntity
  8
2
 62
     7
100
AcDbText
 10
552680.058
 20
335208.89
 30
0.0
 40
0.25
  1
AKA 
 50
45.0
100
AcDbText
  0
TEXT
  5
682
330
BFE
100
AcDbEntity
  8
2
 62
     7
100
AcDbText
 10
552676.87
 20
335206.323
 30
0.0
 40
0.25
  1
AKAOR 
 50
45.0
100
AcDbText
  0
TEXT
  5
683
330
BFE
100
AcDbEntity
  8
GEOD_ELEM_####_TKST_#
100
AcDbText
 10
552694.101
 20
335195.032
 30
0.0
 40
0.25
  1
100 
 50
340.0
100
AcDbText
  0
TEXT
  5
684
330
BFE
100
AcDbEntity
  8
2
 62
     7
100
AcDbText
 10
552663.999
 20
335240.852
 30
0.0
 40
0.25
  1
0 
 50
45.0
100
AcDbText
  0
LWPOLYLINE
  5
68C
330
BFE
100
AcDbEntity
  8
CELI_CMAL_####_####_#
100
AcDbPolyline
 90
        7
 70
     0
 43
0.0
 10
552648.739405
 20
335220.577823
 10
552646.952
 20
335221.734
 10
552638.418
 20
335227.316
 10
552630.252
 20
335232.684
 10
552623.992
 20
335237.421
 10
552614.854
 20
335244.323
 10
552600.523744
 20
335255.1201
  0
LINE
  5
68D
330
BFE
100
AcDbEntity
  8
CELI_CMAL_####_####_#
100
AcDbLine
 10
552631.410489
 20
335231.922456
 30
0.0
 11
552635.291936
 21
335249.049887
 31
0.0
  0
LINE
  5
68E
330
BFE
100
AcDbEntity
  8
CELI_CMAL_####_####_#
100
AcDbLine
 10
552630.964283
 20
335232.215774
 30
0.0
 11
552634.806623
 21
335249.170638
 31
0.0
  0
LWPOLYLINE
  5
68F
330
BFE
100
AcDbEntity
  8
CELI_CMAL_####_####_#
100
AcDbPolyline
 90
        3
 70
     0
 43
0.0
 10
552596.264308
 20
335258.34838
 10
552582.722
 20
335269.452
 10
552581.007768
 20
335270.889195
  0
LWPOLYLINE
  5
690
330
BFE
100
AcDbEntity
  8
CELI_CMAL_####_####_#
100
AcDbPolyline
 90
        3
 70
     0
 43
0.0
 10
552676.757
 20
335204.369
 10
552665.841
 20
335210.77
 10
552652.77625
 20
335218.510465
  0
LWPOLYLINE
  5
691
330
BFE
100
AcDbEntity
  8
CELI_CMAL_####_####_#
100
AcDbPolyline
 90
        5
 70
     0
 43
0.0
 10
552676.243
 20
335203.258
 10
552665.181
 20
335209.844
 10
552657.173
 20
335214.57
 10
552656.426
 20
335213.282
 10
552653.294879
 20
335215.148011
  0
LWPOLYLINE
  5
692
330
BFE
100
AcDbEntity
  8
CELI_CMAL_####_####_#
100
AcDbPolyline
 90
        3
 70
     0
 43
0.0
 10
552656.426
 20
335213.282
 10
552664.426
 20
335208.538
 10
552675.514
 20
335201.998
  0
TEXT
  5
697
330
BFE
100
AcDbEntity
  8
CELI_CSEG_####_TKST_#
100
AcDbText
 10
552667.906579
 20
335207.027479
 30
0.0
 40
0.7
  1
a
  7
Tahoma_07_CC
 72
     1
 11
552668.159265
 21
335207.377479
 31
0.0
100
AcDbText
 73
     2
  0
TEXT
  5
698
330
BFE
100
AcDbEntity
  8
CELI_CSEG_####_TKST_#
100
AcDbText
 10
552653.916095
 20
335215.989481
 30
0.0
 40
0.7
  1
bbr
  7
Tahoma_07_CC
 72
     1
 11
552654.621736
 21
335216.339481
 31
0.0
100
AcDbText
 73
     2
  0
TEXT
  5
699
330
BFE
100
AcDbEntity
  8
CELI_CSEG_####_TKST_#
100
AcDbText
 10
552618.910393
 20
335238.681825
 30
0.0
 40
0.7
  1
bbr
  7
Tahoma_07_CC
 72
     1
 11
552619.616034
 21
335239.031825
 31
0.0
100
AcDbText
 73
     2
  0
TEXT
  5
69A
330
BFE
100
AcDbEntity
  8
CELI_CSEG_####_TKST_#
100
AcDbText
 10
552632.645795
 20
335240.744692
 30
0.0
 40
0.7
  1
bfl
  7
Tahoma_07_CC
 72
     1
 11
552633.175144
 21
335241.094692
 31
0.0
100
AcDbText
 73
     2
  0
LWPOLYLINE
  5
69B
330
BFE
100
AcDbEntity
  8
CELI_CMAL_####_####_#
100
AcDbPolyline
 90
        2
 70
     0
 43
0.0
 10
552616.090633
 20
335288.763149
 10
552614.852262
 20
335274.779375
  0
INSERT
  5
6A0
330
BFE
100
AcDbEntity
  8
TERT_ELEM_####_####_#
  6
Continuous
 62
     3
420
    61440
 48
0.933333
370
     0
100
AcDbBlockReference
  2
KRUMS
 10
552611.221
 20
335249.945
 30
0.0
  0
INSERT
  5
6A8
330
BFE
100
AcDbEntity
  8
TERT_ELEM_####_####_#
  6
Continuous
 62
     3
420
    61440
 48
0.933333
370
     0
100
AcDbBlockReference
  2
KRUMS
 10
552613.305
 20
335248.198
 30
0.0
  0
INSERT
  5
6B0
330
BFE
100
AcDbEntity
  8
TERT_ELEM_####_####_#
  6
Continuous
 62
     3
420
    61440
 48
0.933333
370
     0
100
AcDbBlockReference
  2
KRUMS
 10
552615.307
 20
335246.65
 30
0.0
  0
INSERT
  5
6B8
330
BFE
100
AcDbEntity
  8
TERT_ELEM_####_####_#
  6
Continuous
 62
     3
420
    61440
 48
0.933333
370
     0
100
AcDbBlockReference
  2
KRUMS
 10
552617.392
 20
335245.04
 30
0.0
  0
INSERT
  5
6C0
330
BFE
100
AcDbEntity
  8
TERT_ELEM_####_####_#
  6
Continuous
 62
     3
420
    61440
 48
0.933333
370
     0
100
AcDbBlockReference
  2
KRUMS
 10
552619.293
 20
335243.862
 30
0.0
  0
INSERT
  5
6C8
330
BFE
100
AcDbEntity
  8
TERT_ELEM_####_####_#
  6
Continuous
 62
     3
420
    61440
 48
0.933333
370
     0
100
AcDbBlockReference
  2
KRUMS
 10
552621.051
 20
335242.781
 30
0.0
  0
INSERT
  5
6D0
330
BFE
100
AcDbEntity
  8
TERT_ELEM_####_####_#
  6
Continuous
 62
     3
420
    61440
 48
0.933333
370
     0
100
AcDbBlockReference
  2
KRUMS
 10
552622.589
 20
335241.758
 30
0.0
  0
INSERT
  5
6D9
330
BFE
100
AcDbEntity
  8
TERT_ELEM_####_####_#
  6
Continuous
 62
    92
420
    57600
 48
0.933333
370
     0
100
AcDbBlockReference
  2
EGLE
 10
552621.639
 20
335249.313
 30
0.0
  0
INSERT
  5
6E4
330
BFE
100
AcDbEntity
  8
TERT_ELEM_####_####_#
  6
Continuous
 62
    92
420
    57600
 48
0.933333
370
     0
100
AcDbBlockReference
  2
EGLE
 10
552628.492
 20
335246.873
 30
0.0
  0
INSERT
  5
6EF
330
BFE
100
AcDbEntity
  8
TERT_ELEM_####_####_#
  6
Continuous
 62
    92
420
    57600
 48
0.933333
370
     0
100
AcDbBlockReference
  2
EGLE
 10
552631.039
 20
335246.184
 30
0.0
  0
INSERT
  5
6FA
330
BFE
100
AcDbEntity
  8
TERT_ELEM_####_####_#
  6
Continuous
 62
    92
420
    57600
 48
0.933333
370
     0
100
AcDbBlockReference
  2
EGLE
 10
552635.42
 20
335244.594
 30
0.0
  0
INSERT
  5
705
330
BFE
100
AcDbEntity
  8
TERT_ELEM_####_####_#
  6
Continuous
 62
    92
420
    57600
 48
0.933333
370
     0
100
AcDbBlockReference
  2
EGLE
 10
552641.88
 20
335243.194
 30
0.0
  0
INSERT
  5
710
330
BFE
100
AcDbEntity
  8
TERT_ELEM_####_####_#
  6
Continuous
 62
    92
420
    57600
 48
0.933333
370
     0
100
AcDbBlockReference
  2
EGLE
 10
552646.415
 20
335241.387
 30
0.0
  0
INSERT
  5
71C
330
BFE
100
AcDbEntity
  8
TERT_ELEM_####_####_#
  6
Continuous
 62
    92
420
    57600
 48
0.933333
370
     0
100
AcDbBlockReference
  2
LEGLE
 10
552625.693
 20
335239.181
 30
0.0
  0
TEXT
  5
72B
330
BFE
100
AcDbEntity
  8
TERT_DIAM_####_TKST_#
100
AcDbText
 10
552621.923561
 20
335250.348291
 30
0.0
 40
0.5
  1
2
  7
Tahoma_05_LB
100
AcDbText
  0
TEXT
  5
72C
330
BFE
100
AcDbEntity
  8
TERT_DIAM_####_TKST_#
100
AcDbText
 10
552628.847914
 20
335248.166751
 30
0.0
 40
0.5
  1
3
  7
Tahoma_05_LB
100
AcDbText
  0
TEXT
  5
72D
330
BFE
100
AcDbEntity
  8
TERT_DIAM_####_TKST_#
100
AcDbText
 10
552631.440863
 20
335247.488705
 30
0.0
 40
0.5
  1
5 
  7
Tahoma_05_LB
100
AcDbText
  0
TEXT
  5
72E
330
BFE
100
AcDbEntity
  8
TERT_DIAM_####_TKST_#
100
AcDbText
 10
552635.772267
 20
335245.926251
 30
0.0
 40
0.5
  1
3
  7
Tahoma_05_LB
100
AcDbText
  0
TEXT
  5
72F
330
BFE
100
AcDbEntity
  8
TERT_DIAM_####_TKST_#
100
AcDbText
 10
552642.19571
 20
335244.599639
 30
0.0
 40
0.5
  1
10
  7
Tahoma_05_LB
100
AcDbText
  0
TEXT
  5
730
330
BFE
100
AcDbEntity
  8
TERT_DIAM_####_TKST_#
100
AcDbText
 10
552626.048708
 20
335240.501881
 30
0.0
 40
0.5
  1
30
  7
Tahoma_05_LB
100
AcDbText
  0
TEXT
  5
731
330
BFE
100
AcDbEntity
  8
TERT_DIAM_####_TKST_#
100
AcDbText
 10
552646.718638
 20
335242.721324
 30
0.0
 40
0.5
  1
10
  7
Tahoma_05_LB
100
AcDbText
  0
INSERT
  5
732
330
BFE
100
AcDbEntity
  8
TERT_ELEM_####_####_#
  6
Continuous
 62
    92
420
    57600
 48
0.933333
370
     0
100
AcDbBlockReference
  2
EGLE
 10
552625.144
 20
335247.84
 30
0.0
  0
TEXT
  5
73D
330
BFE
100
AcDbEntity
  8
TERT_DIAM_####_TKST_#
100
AcDbText
 10
552625.242804
 20
335249.256478
 30
0.0
 40
0.5
  1
5 sausa
  7
Tahoma_05_LB
100
AcDbText
  0
LWPOLYLINE
  5
740
330
BFE
100
AcDbEntity
  8
CELI_CAPM_####_####_#
100
AcDbPolyline
 90
       11
 70
     0
 43
0.0
 10
552675.277
 20
335201.334
 10
552663.865
 20
335207.735
 10
552655.763
 20
335212.477
 10
552654.772638
 20
335213.203872
 10
552654.125378
 20
335213.790979
 10
552653.551
 20
335214.485
 10
552653.148822
 20
335215.526104
 10
552652.978
 20
335216.407
 10
552652.822
 20
335217.385
 10
552652.773
 20
335218.37
 10
552652.796
 20
335219.364
  0
LWPOLYLINE
  5
745
330
BFE
100
AcDbEntity
  8
BUVE_EKAS_BPAL_####_#
100
AcDbPolyline
 90
        5
 70
     1
 43
0.0
 10
552667.852
 20
335273.569
 10
552667.316616
 20
335267.575503
 10
552664.434
 20
335267.833
 10
552664.969384
 20
335273.826497
 10
552667.852
 20
335273.569
  0
LWPOLYLINE
  5
746
330
BFE
100
AcDbEntity
  8
CELI_CAPM_####_####_#
100
AcDbPolyline
 90
        7
 70
     0
 43
0.0
 10
552671.041
 20
335281.411
 10
552670.357
 20
335281.071
 10
552669.694
 20
335280.136
 10
552669.238
 20
335278.632
 10
552668.861
 20
335274.658
 10
552668.874
 20
335273.535784
 10
552667.469256
 20
335273.67812
  0
INSERT
  5
74A
330
BFE
100
AcDbEntity
  8
BUVE_ELEM_####_####_#
  6
Continuous
 62
     7
420
 16777215
 48
0.933333
370
    13
100
AcDbBlockReference
  2
MST
 10
552661.887
 20
335252.115
 30
0.0
  0
INSERT
  5
74C
330
BFE
100
AcDbEntity
  8
BUVE_ELEM_####_####_#
  6
Continuous
 62
     7
420
 16777215
 48
0.933333
370
    13
100
AcDbBlockReference
  2
MST
 10
552672.223
 20
335250.688
 30
0.0
  0
INSERT
  5
752
330
BFE
100
AcDbEntity
  8
GAZE_ELEM_####_####_#
  6
Continuous
 62
     1
420
 16711680
 48
0.933333
370
    13
100
AcDbBlockReference
  2
GZVENT
 10
552680.847
 20
335260.243
 30
0.0
  0
INSERT
  5
756
330
BFE
100
AcDbEntity
  8
GAZE_ELEM_####_####_#
  6
Continuous
 62
     1
420
 16711680
 48
0.933333
370
    13
100
AcDbBlockReference
  2
GZVENT
 10
552678.147
 20
335217.305
 30
0.0
  0
INSERT
  5
75A
330
BFE
100
AcDbEntity
  8
GAZE_ELEM_####_####_#
  6
Continuous
 62
     1
420
 16711680
 48
0.933333
370
    13
100
AcDbBlockReference
  2
GZVENT
 10
552678.752
 20
335217.169
 30
0.0
  0
INSERT
  5
75F
330
BFE
100
AcDbEntity
  8
TERT_ELEM_####_####_#
  6
Continuous
 62
    92
420
    57600
 48
0.933333
370
     0
100
AcDbBlockReference
  2
LAPUKO
 10
552675.396
 20
335216.089
 30
0.0
  0
TEXT
  5
76B
330
BFE
100
AcDbEntity
  8
TERT_DIAM_####_TKST_#
100
AcDbText
 10
552674.031625
 20
335217.622568
 30
0.0
 40
0.5
  1
KA 1
  7
Tahoma_05_LB
100
AcDbText
  0
INSERT
  5
770
330
BFE
100
AcDbEntity
  8
CKOM_ELEM_####_####_#
  6
Continuous
 62
     7
420
 16777215
 48
0.933333
370
     0
100
AcDbBlockReference
  2
KABST
 10
552681.336
 20
335260.293
 30
0.0
  0
INSERT
  5
774
330
BFE
100
AcDbEntity
  8
CKOM_ELEM_####_####_#
  6
Continuous
 62
     7
420
 16777215
 48
0.933333
370
     0
100
AcDbBlockReference
  2
KABST
 10
552677.18
 20
335217.672
 30
0.0
  0
INSERT
  5
778
330
BFE
100
AcDbEntity
  8
CKOM_ELEM_####_####_#
  6
Continuous
 62
     7
420
 16777215
 48
0.933333
370
     0
100
AcDbBlockReference
  2
KABST
 10
552679.667
 20
335217.085
 30
0.0
  0
TEXT
  5
77F
330
BFE
100
AcDbEntity
  8
CKOM_ELEM_####_TKST_#
100
AcDbText
 10
552675.729174
 20
335218.172728
 30
0.0
 40
0.5
  1
d.219
  7
Tahoma_05_LB
100
AcDbText
  0
TEXT
  5
780
330
BFE
100
AcDbEntity
  8
CKOM_ELEM_####_TKST_#
100
AcDbText
 10
552680.078703
 20
335217.681714
 30
0.0
 40
0.5
  1
d.159
  7
Tahoma_05_LB
100
AcDbText
  0
TEXT
  5
781
330
BFE
100
AcDbEntity
  8
CKOM_ELEM_####_TKST_#
100
AcDbText
 10
552681.763143
 20
335261.490904
 30
0.0
 40
0.5
  1
d.100
  7
Tahoma_05_LB
100
AcDbText
  0
INSERT
  5
785
330
BFE
100
AcDbEntity
  8
CELI_ELEM_####_####_#
  6
Continuous
 62
     2
420
 16776960
 48
0.933333
370
     0
100
AcDbBlockReference
  2
CZIME
 10
552656.112
 20
335213.062
 30
0.0
  0
INSERT
  5
78C
330
BFE
100
AcDbEntity
  8
CELI_ELEM_####_####_#
  6
Continuous
 62
     2
420
 16776960
 48
0.933333
370
     0
100
AcDbBlockReference
  2
CZIME
 10
552656.142
 20
335216.82
 30
0.0
  0
INSERT
  5
793
330
BFE
100
AcDbEntity
  8
CELI_ELEM_####_####_#
  6
Continuous
 62
     2
420
 16776960
 48
0.933333
370
     0
100
AcDbBlockReference
  2
CZIME
 10
552644.806
 20
335223.862
 30
0.0
  0
INSERT
  5
79A
330
BFE
100
AcDbEntity
  8
CELI_ELEM_####_####_#
  6
Continuous
 62
     2
420
 16776960
 48
0.933333
370
     0
100
AcDbBlockReference
  2
CZIME
 10
552632.427
 20
335227.774
 30
0.0
  0
INSERT
  5
7A1
330
BFE
100
AcDbEntity
  8
TERT_ELEM_####_####_#
  6
Continuous
 62
    92
420
    57600
 48
0.933333
370
     0
100
AcDbBlockReference
  2
LAPUKO
 10
552587.904
 20
335276.007
 30
0.0
  0
TEXT
  5
7AD
330
BFE
100
AcDbEntity
  8
TERT_DIAM_####_TKST_#
100
AcDbText
 10
552588.134861
 20
335277.471781
 30
0.0
 40
0.5
  1
KA 1
  7
Tahoma_05_LB
100
AcDbText
  0
INSERT
  5
7AF
330
BFE
100
AcDbEntity
  8
BUVE_ELEM_####_####_#
  6
Continuous
 62
     7
420
 16777215
 48
0.933333
370
    13
100
AcDbBlockReference
  2
METCAU
 10
552669.647
 20
335214.207
 30
0.0
  0
INSERT
  5
7B1
330
BFE
100
AcDbEntity
  8
BUVE_ELEM_####_####_#
  6
Continuous
 62
     7
420
 16777215
 48
0.933333
370
    13
100
AcDbBlockReference
  2
METCAU
 10
552671.089
 20
335213.622
 30
0.0
  0
LWPOLYLINE
  5
7B5
330
BFE
100
AcDbEntity
  8
CELI_REKL_####_####_#
100
AcDbPolyline
 90
        2
 70
     0
 43
0.0
 10
552669.647
 20
335214.207
 10
552671.089
 20
335213.622
  0
TEXT
  5
7B6
330
BFE
100
AcDbEntity
  8
CELI_CSEG_####_TKST_#
100
AcDbText
 10
552651.650319
 20
335228.107619
 30
0.0
 40
0.7
  1
a
  7
Tahoma_07_CC
 72
     1
 11
552651.903005
 21
335228.457619
 31
0.0
100
AcDbText
 73
     2
  0
LINE
  5
7BE
330
BFE
100
AcDbEntity
  8
CELI_SEGL_####_####_#
100
AcDbLine
 10
552651.145
 20
335242.99
 30
0.0
 11
552651.806
 21
335248.377
 31
0.0
  0
LWPOLYLINE
  5
7C0
330
BFE
100
AcDbEntity
  8
CELI_SEGL_####_####_#
100
AcDbPolyline
 90
        6
 70
   128
 43
0.0
 10
552651.806
 20
335248.377
 10
552649.887
 20
335250.782
 10
552642.482
 20
335252.31
 10
552634.682
 20
335253.933
 10
552626.696
 20
335256.081
 10
552614.091
 20
335258.421
  0
LWPOLYLINE
  5
7C1
330
BFE
100
AcDbEntity
  8
CELI_SEGL_####_####_#
100
AcDbPolyline
 90
        4
 70
   128
 43
0.0
 10
552653.149
 20
335222.983
 10
552654.06
 20
335235.659
 10
552654.976
 20
335247.523
 10
552655.795
 20
335254.871
  0
TEXT
  5
7C2
330
BFE
100
AcDbEntity
  8
CELI_CSEG_####_TKST_#
100
AcDbText
 10
552602.141369
 20
335257.355292
 30
0.0
 40
0.7
  1
a
  7
Tahoma_07_CC
 72
     1
 11
552602.394055
 21
335257.705292
 31
0.0
100
AcDbText
 73
     2
  0
TEXT
  5
7C3
330
BFE
100
AcDbEntity
  8
CELI_CSEG_####_TKST_#
100
AcDbText
 10
552626.889704
 20
335259.061271
 30
0.0
 40
0.7
  1
a
  7
Tahoma_07_CC
 72
     1
 11
552627.14239
 21
335259.411271
 31
0.0
100
AcDbText
 73
     2
  0
TEXT
  5
7C4
330
BFE
100
AcDbEntity
  8
CELI_CSEG_####_TKST_#
100
AcDbText
 10
552647.312398
 20
335253.643417
 30
0.0
 40
0.7
  1
a
  7
Tahoma_07_CC
 72
     1
 11
552647.565084
 21
335253.993417
 31
0.0
100
AcDbText
 73
     2
  0
TEXT
  5
7C5
330
BFE
100
AcDbEntity
  8
CELI_CSEG_####_TKST_#
100
AcDbText
 10
552653.1143
 20
335245.361841
 30
0.0
 40
0.7
  1
a
  7
Tahoma_07_CC
 72
     1
 11
552653.366986
 21
335245.711841
 31
0.0
100
AcDbText
 73
     2
  0
TEXT
  5
7C6
330
BFE
100
AcDbEntity
  8
CELI_CSEG_####_TKST_#
100
AcDbText
 10
552621.224129
 20
335254.030407
 30
0.0
 40
0.7
  1
šķ
  7
Tahoma_07_CC
 72
     1
 11
552621.688602
 21
335254.380407
 31
0.0
100
AcDbText
 73
     2
  0
TEXT
  5
7C7
330
BFE
100
AcDbEntity
  8
CELI_CSEG_####_TKST_#
100
AcDbText
 10
552638.823231
 20
335250.147612
 30
0.0
 40
0.7
  1
šķ
  7
Tahoma_07_CC
 72
     1
 11
552639.287704
 21
335250.497612
 31
0.0
100
AcDbText
 73
     2
  0
TEXT
  5
7C8
330
BFE
100
AcDbEntity
  8
CELI_CSEG_####_TKST_#
100
AcDbText
 10
552655.610067
 20
335230.462744
 30
0.0
 40
0.7
  1
šķ
  7
Tahoma_07_CC
 72
     1
 11
552656.07454
 21
335230.812744
 31
0.0
100
AcDbText
 73
     2
  0
TEXT
  5
7C9
330
BFE
100
AcDbEntity
  8
CELI_CSEG_####_TKST_#
100
AcDbText
 10
552657.054096
 20
335246.716305
 30
0.0
 40
0.7
  1
šķ
  7
Tahoma_07_CC
 72
     1
 11
552657.518569
 21
335247.066305
 31
0.0
100
AcDbText
 73
     2
  0
LWPOLYLINE
  5
7CC
330
BFE
100
AcDbEntity
  8
BUVE_BDET_####_####_#
100
AcDbPolyline
 90
        6
 70
     0
 43
0.0
 10
552607.028513
 20
335286.629052
 10
552607.055231
 20
335286.953123
 10
552606.802
 20
335286.974
 10
552606.716903
 20
335285.94182
 10
552606.970134
 20
335285.920943
 10
552607.028513
 20
335286.629052
  0
INSERT
  5
7CD
330
BFE
100
AcDbEntity
  8
TERT_ELEM_####_####_#
  6
Continuous
 62
     3
420
    61440
 48
0.933333
370
     0
100
AcDbBlockReference
  2
KRUMS
 10
552614.9
 20
335273.422
 30
0.0
  0
INSERT
  5
7D5
330
BFE
100
AcDbEntity
  8
TERT_ELEM_####_####_#
  6
Continuous
 62
     3
420
    61440
 48
0.933333
370
     0
100
AcDbBlockReference
  2
KRUMS
 10
552629.571
 20
335267.103
 30
0.0
  0
INSERT
  5
7DE
330
BFE
100
AcDbEntity
  8
TERT_ELEM_####_####_#
  6
Continuous
 62
    92
420
    57600
 48
0.933333
370
     0
100
AcDbBlockReference
  2
AUGLU
 10
552621.506
 20
335272.816
 30
0.0
  0
INSERT
  5
7EB
330
BFE
100
AcDbEntity
  8
TERT_ELEM_####_####_#
  6
Continuous
 62
    92
420
    57600
 48
0.933333
370
     0
100
AcDbBlockReference
  2
AUGLU
 10
552625.389
 20
335272.771
 30
0.0
  0
INSERT
  5
7F8
330
BFE
100
AcDbEntity
  8
TERT_ELEM_####_####_#
  6
Continuous
 62
    92
420
    57600
 48
0.933333
370
     0
100
AcDbBlockReference
  2
AUGLU
 10
552625.536
 20
335271.199
 30
0.0
  0
LINE
  5
807
330
BFE
100
AcDbEntity
  8
APGS_DETV_####_####_#
100
AcDbLine
 10
552634.335
 20
335230.913
 30
0.0
 11
552632.091894
 21
335227.944647
 31
0.0
  0
INSERT
  5
80C
330
BFE
100
AcDbEntity
  8
APGS_ELEM_####_####_#
  6
Continuous
 62
   240
420
 16646238
 48
0.933333
370
     0
100
AcDbBlockReference
  2
APGFERM
 10
552634.335
 20
335230.913
 30
0.0
  0
INSERT
  5
811
330
BFE
100
AcDbEntity
  8
APGS_ELEM_####_####_#
  6
Continuous
 62
   240
420
 16646238
 48
0.933333
370
     0
100
AcDbBlockReference
  2
APLAMPIE
 10
552632.091894
 20
335227.944647
 30
0.0
  0
INSERT
  5
818
330
BFE
100
AcDbEntity
  8
APGS_ELEM_####_####_#
  6
Continuous
 62
   240
420
 16646238
 48
0.933333
370
     0
100
AcDbBlockReference
  2
APLAMP
 10
552657.807
 20
335217.904
 30
0.0
  0
LWPOLYLINE
  5
81F
330
BFE
100
AcDbEntity
  8
CELI_CAPM_####_####_#
100
AcDbPolyline
 90
        4
 70
     0
 43
0.0
 10
552679.753
 20
335296.685
 10
552679.072
 20
335290.342
 10
552678.508
 20
335282.598
 10
552671.041
 20
335281.411
  0
LWPOLYLINE
  5
820
330
BFE
100
AcDbEntity
  8
Level 37
  6
DGN Style 2
 62
   212
370
    13
100
AcDbPolyline
 90
        7
 70
   128
 43
0.0
 10
552604.976949
 20
335300.607186
 10
552606.306
 20
335299.769
 10
552619.617
 20
335297.807
 10
552627.243
 20
335296.597
 10
552636.119
 20
335294.578
 10
552637.751
 20
335294.912
 10
552638.823
 20
335295.817
  0
LWPOLYLINE
  5
821
330
BFE
100
AcDbEntity
  8
Level 37
  6
DGN Style 2
 62
   212
370
    13
100
AcDbPolyline
 90
        2
 70
   128
 43
0.0
 10
552605.683295
 20
335304.212587
 10
552604.976949
 20
335300.607186
  0
LWPOLYLINE
  5
822
330
BFE
100
AcDbEntity
  8
Level 37
  6
DGN Style 2
 62
   212
370
     0
100
AcDbPolyline
 90
        3
 70
   128
 43
0.0
 10
552638.823
 20
335295.817
 10
552641.585
 20
335298.755
 10
552641.738
 20
335299.625
  0
LWPOLYLINE
  5
823
330
BFE
100
AcDbEntity
  8
Level 37
  6
DGN Style 2
 62
   212
370
     0
100
AcDbPolyline
 90
        2
 70
   128
 43
0.0
 10
552644.904
 20
335299.485
 10
552642.852
 20
335293.744
  0
LWPOLYLINE
  5
824
330
BFE
100
AcDbEntity
  8
Level 37
  6
DGN Style 2
 62
   212
370
    13
100
AcDbPolyline
 90
        7
 70
   128
 43
0.0
 10
552642.852
 20
335293.744
 10
552643.318
 20
335292.425
 10
552644.867
 20
335291.445
 10
552660.271
 20
335286.054
 10
552666.0
 20
335284.443
 10
552667.573
 20
335285.65
 10
552667.908
 20
335292.861
  0
LINE
  5
825
330
BFE
100
AcDbEntity
  8
Level 37
  6
DGN Style 2
 62
   212
370
     0
100
AcDbLine
 10
552667.573
 20
335292.869
 30
0.0
 11
552656.147683
 21
335287.497054
 31
0.0
  0
LINE
  5
826
330
BFE
100
AcDbEntity
  8
Level 37
  6
DGN Style 2
 62
   212
370
     0
100
AcDbLine
 10
552667.7409
 20
335289.264106
 30
0.0
 11
552660.328368
 21
335286.033923
 31
0.0
  0
LWPOLYLINE
  5
827
330
BFE
100
AcDbEntity
  8
CELI_CAPM_####_####_#
100
AcDbPolyline
 90
        2
 70
     0
 43
0.0
 10
552664.262
 20
335274.934
 10
552664.585358
 20
335280.626219
  0
LWPOLYLINE
  5
828
330
BFE
100
AcDbEntity
  8
Level 37
  6
DGN Style 2
 62
   212
370
    13
100
AcDbPolyline
 90
        6
 70
   128
 43
0.0
 10
552618.40588
 20
335294.345803
 10
552625.395
 20
335293.272
 10
552635.029
 20
335291.056
 10
552643.7
 20
335288.141
 10
552660.367
 20
335282.103
 10
552664.585358
 20
335280.626219
  0
LINE
  5
829
330
BFE
100
AcDbEntity
  8
Level 37
  6
DGN Style 2
 62
   212
370
     0
100
AcDbLine
 10
552642.325
 20
335304.479
 30
0.0
 11
552642.455255
 21
335305.648047
 31
0.0
  0
LINE
  5
82A
330
BFE
100
AcDbEntity
  8
Level 37
  6
DGN Style 2
 62
   212
370
     0
100
AcDbLine
 10
552642.023
 20
335301.98
 30
0.0
 11
552642.325
 21
335304.479
 31
0.0
  0
LWPOLYLINE
  5
82B
330
BFE
100
AcDbEntity
  8
Level 37
  6
DGN Style 2
 62
   212
370
     0
100
AcDbPolyline
 90
        2
 70
   128
 43
0.0
 10
552644.904
 20
335299.485
 10
552645.513225
 20
335305.341649
  0
LINE
  5
82C
330
BFE
100
AcDbEntity
  8
BUVE_BDET_####_####_#
100
AcDbLine
 10
552637.619
 20
335266.908
 30
0.0
 11
552640.572
 21
335266.679
 31
0.0
  0
LINE
  5
82D
330
BFE
100
AcDbEntity
  8
BUVE_BDET_####_####_#
100
AcDbLine
 10
552640.572
 20
335266.679
 30
0.0
 11
552640.687959
 21
335268.174308
 31
0.0
  0
LINE
  5
82E
330
BFE
100
AcDbEntity
  8
BUVE_BDET_####_####_#
100
AcDbLine
 10
552637.737099
 20
335268.430904
 30
0.0
 11
552637.619
 21
335266.908
 31
0.0
  0
LINE
  5
82F
330
BFE
100
AcDbEntity
  8
CELI_CMAL_####_####_#
100
AcDbLine
 10
552662.972217
 20
335261.335079
 30
0.0
 11
552656.289019
 21
335261.898043
 31
0.0
  0
LINE
  5
830
330
BFE
100
AcDbEntity
  8
CELI_CMAL_####_####_#
100
AcDbLine
 10
552646.372351
 20
335267.480407
 30
0.0
 11
552640.666297
 21
335267.894982
 31
0.0
  0
LINE
  5
831
330
BFE
100
AcDbEntity
  8
CELI_CMAL_####_####_#
100
AcDbLine
 10
552645.902
 20
335262.773
 30
0.0
 11
552646.378156
 21
335267.451559
 31
0.0
  0
LINE
  5
832
330
BFE
100
AcDbEntity
  8
CELI_CMAL_####_####_#
100
AcDbLine
 10
552630.365
 20
335268.615
 30
0.0
 11
552630.847
 21
335273.362
 31
0.0
  0
LINE
  5
833
330
BFE
100
AcDbEntity
  8
CELI_CMAL_####_####_#
100
AcDbLine
 10
552630.847
 20
335273.362
 30
0.0
 11
552625.246014
 21
335273.858581
 31
0.0
  0
LWPOLYLINE
  5
834
330
BFE
100
AcDbEntity
  8
CELI_CMAL_####_####_#
100
AcDbPolyline
 90
        2
 70
     0
 43
0.0
 10
552653.211
 20
335260.735
 10
552652.744
 20
335256.385
  0
LWPOLYLINE
  5
835
330
BFE
100
AcDbEntity
  8
CELI_CMAL_####_####_#
100
AcDbPolyline
 90
        2
 70
     0
 43
0.0
 10
552655.756851
 20
335254.827291
 10
552656.151
 20
335260.454
  0
LWPOLYLINE
  5
836
330
BFE
100
AcDbEntity
  8
CELI_CMAL_####_####_#
100
AcDbPolyline
 90
        6
 70
     0
 43
0.0
 10
552664.073
 20
335266.779
 10
552667.522
 20
335266.509
 10
552667.193
 20
335265.726
 10
552663.902
 20
335261.763
 10
552663.698
 20
335261.87
 10
552664.073
 20
335266.779
  0
LWPOLYLINE
  5
837
330
BFE
100
AcDbEntity
  8
CELI_CMAL_####_####_#
100
AcDbPolyline
 90
        3
 70
     0
 43
0.0
 10
552656.097
 20
335259.305
 10
552663.072
 20
335260.976
 10
552663.041
 20
335261.224
  0
LWPOLYLINE
  5
838
330
BFE
100
AcDbEntity
  8
CELI_CMAL_####_####_#
100
AcDbPolyline
 90
        9
 70
     0
 43
0.0
 10
552668.945
 20
335273.542
 10
552668.298
 20
335266.292
 10
552667.877
 20
335265.339
 10
552664.092
 20
335260.686
 10
552663.871584
 20
335260.75165
 10
552663.673528
 20
335260.702112
 10
552663.508482
 20
335260.531477
 10
552663.494
 20
335260.323
 10
552656.04
 20
335258.465
  0
TEXT
  5
839
330
BFE
100
AcDbEntity
  8
CELI_CSEG_####_TKST_#
100
AcDbText
 10
552665.6769
 20
335266.86847
 30
0.0
 40
0.7
  1
bbr
  7
Tahoma_07_CC
 72
     1
 11
552666.382541
 21
335267.21847
 31
0.0
100
AcDbText
 73
     2
  0
TEXT
  5
83A
330
BFE
100
AcDbEntity
  8
CELI_CSEG_####_TKST_#
100
AcDbText
 10
552658.55602
 20
335259.312772
 30
0.0
 40
0.7
  1
bbr
  7
Tahoma_07_CC
 72
     1
 11
552659.261661
 21
335259.662772
 31
0.0
100
AcDbText
 73
     2
  0
TEXT
  5
83B
330
BFE
100
AcDbEntity
  8
CELI_CSEG_####_TKST_#
100
AcDbText
 10
552653.874692
 20
335257.638662
 30
0.0
 40
0.7
  1
bfl
  7
Tahoma_07_CC
 72
     1
 11
552654.404041
 21
335257.988662
 31
0.0
100
AcDbText
 73
     2
  0
TEXT
  5
83C
330
BFE
100
AcDbEntity
  8
CELI_CSEG_####_TKST_#
100
AcDbText
 10
552638.343575
 20
335261.149131
 30
0.0
 40
0.7
  1
bfl
  7
Tahoma_07_CC
 72
     1
 11
552638.872924
 21
335261.499131
 31
0.0
100
AcDbText
 73
     2
  0
TEXT
  5
83D
330
BFE
100
AcDbEntity
  8
CELI_CSEG_####_TKST_#
100
AcDbText
 10
552622.825947
 20
335267.514933
 30
0.0
 40
0.7
  1
bfl
  7
Tahoma_07_CC
 72
     1
 11
552623.355296
 21
335267.864933
 31
0.0
100
AcDbText
 73
     2
  0
LWPOLYLINE
  5
83E
330
BFE
100
AcDbEntity
  8
BUVE_BDET_####_####_#
100
AcDbPolyline
 90
        5
 70
     1
 43
0.0
 10
552620.968
 20
335266.946
 10
552621.486941
 20
335266.869799
 10
552621.546
 20
335267.272
 10
552621.027059
 20
335267.348201
 10
552620.968
 20
335266.946
  0
LINE
  5
83F
330
BFE
100
AcDbEntity
  8
BUVE_BDET_####_####_#
100
AcDbLine
 10
552621.223059
 20
335269.293201
 30
0.0
 11
552621.742
 21
335269.217
 31
0.0
  0
LINE
  5
840
330
BFE
100
AcDbEntity
  8
BUVE_BDET_####_####_#
100
AcDbLine
 10
552621.742
 20
335269.217
 30
0.0
 11
552621.801059
 21
335269.619201
 31
0.0
  0
LINE
  5
841
330
BFE
100
AcDbEntity
  8
BUVE_BDET_####_####_#
100
AcDbLine
 10
552621.801059
 20
335269.619201
 30
0.0
 11
552621.282119
 21
335269.695403
 31
0.0
  0
LINE
  5
842
330
BFE
100
AcDbEntity
  8
BUVE_BDET_####_####_#
100
AcDbLine
 10
552621.282119
 20
335269.695403
 30
0.0
 11
552621.223059
 21
335269.293201
 31
0.0
  0
LINE
  5
843
330
BFE
100
AcDbEntity
  8
BUVE_BDET_####_####_#
100
AcDbLine
 10
552653.211
 20
335260.735
 30
0.0
 11
552656.151
 21
335260.454
 31
0.0
  0
LINE
  5
844
330
BFE
100
AcDbEntity
  8
BUVE_BDET_####_####_#
100
AcDbLine
 10
552656.151
 20
335260.454
 30
0.0
 11
552656.316065
 21
335262.181013
 31
0.0
  0
LINE
  5
845
330
BFE
100
AcDbEntity
  8
BUVE_BDET_####_####_#
100
AcDbLine
 10
552653.37522
 20
335262.453169
 30
0.0
 11
552653.211
 21
335260.735
 31
0.0
  0
INSERT
  5
847
330
BFE
100
AcDbEntity
  8
TERT_ELEM_####_####_#
  6
Continuous
 62
    92
420
    57600
 48
0.7
370
     0
100
AcDbBlockReference
  2
CELMS
 10
552620.502
 20
335264.302
 30
0.0
 50
30.0
  0
INSERT
  5
84A
330
BFE
100
AcDbEntity
  8
TERT_ELEM_####_####_#
  6
Continuous
 62
    92
420
    57600
 48
0.7
370
     0
100
AcDbBlockReference
  2
CELMS
 10
552620.502
 20
335264.302
 30
0.0
 50
330.0
  0
TEXT
  5
84D
330
BFE
100
AcDbEntity
  8
TERT_DIAM_####_TKST_#
100
AcDbText
 10
552618.647167
 20
335264.49403
 30
0.0
 40
0.5
  1
2x15
  7
Tahoma_05_LB
100
AcDbText
  0
LINE
  5
84E
330
BFE
100
AcDbEntity
  8
CELI_CMAL_####_####_#
100
AcDbLine
 10
552621.19939
 20
335263.262573
 30
0.0
 11
552622.08225
 21
335272.637073
 31
0.0
  0
LWPOLYLINE
  5
84F
330
BFE
100
AcDbEntity
  8
CELI_CMAL_####_####_#
100
AcDbPolyline
 90
        4
 70
     0
 43
0.0
 10
552625.107764
 20
335272.358278
 10
552624.318
 20
335263.517
 10
552636.994
 20
335260.386
 10
552637.619
 20
335266.908
  0
LWPOLYLINE
  5
850
330
BFE
100
AcDbEntity
  8
CELI_CMAL_####_####_#
100
AcDbPolyline
 90
        3
 70
     0
 43
0.0
 10
552640.572
 20
335266.679
 10
552640.053
 20
335259.601
 10
552652.744
 20
335256.385
  0
INSERT
  5
856
330
BFE
100
AcDbEntity
  8
ELEK_ELEM_####_####_#
  6
Continuous
 62
    56
420
  8881920
 48
0.933333
370
     0
100
AcDbBlockReference
  2
ELSKAP
 10
552620.206386
 20
335274.75366
 30
0.0
 50
354.074915
  0
INSERT
  5
85C
330
BFE
100
AcDbEntity
  8
SAKK_ELEM_####_####_#
  6
Continuous
 62
     5
420
      255
 48
0.933333
370
    13
100
AcDbBlockReference
  2
SKAKA
 10
552587.216
 20
335267.288
 30
0.0
  0
INSERT
  5
860
330
BFE
100
AcDbEntity
  8
SAKK_ELEM_####_####_#
  6
Continuous
 62
     5
420
      255
 48
0.933333
370
    13
100
AcDbBlockReference
  2
SKAKA
 10
552607.825
 20
335286.71
 30
0.0
  0
INSERT
  5
864
330
BFE
100
AcDbEntity
  8
SAKK_ELEM_####_####_#
  6
Continuous
 62
     5
420
      255
 48
0.933333
370
    13
100
AcDbBlockReference
  2
SKAKA
 10
552636.367
 20
335228.744
 30
0.0
  0
LINE
  5
86B
330
BFE
100
AcDbEntity
  8
SAKK_IZVK_####_TKST_#
100
AcDbLine
 10
552613.183673
 20
335285.424223
 30
0.0
 11
552613.465922
 21
335286.600541
 31
0.0
  0
LINE
  5
86C
330
BFE
100
AcDbEntity
  8
SAKK_IZVK_####_TKST_#
100
AcDbLine
 10
552607.848883
 20
335293.054493
 30
0.0
 11
552606.124208
 21
335293.060985
 31
0.0
  0
LINE
  5
86D
330
BFE
100
AcDbEntity
  8
SAKK_IZVK_####_TKST_#
100
AcDbLine
 10
552592.51721
 20
335272.22425
 30
0.0
 11
552591.614529
 21
335273.178157
 31
0.0
  0
LINE
  5
86E
330
BFE
100
AcDbEntity
  8
SAKK_IZVK_####_TKST_#
100
AcDbLine
 10
552584.265483
 20
335269.599063
 30
0.0
 11
552585.972653
 21
335271.755577
 31
0.0
  0
LINE
  5
86F
330
BFE
100
AcDbEntity
  8
SAKK_IZVK_####_TKST_#
100
AcDbLine
 10
552608.24216
 20
335250.787301
 30
0.0
 11
552609.638904
 21
335252.569807
 31
0.0
  0
LINE
  5
870
330
BFE
100
AcDbEntity
  8
SAKK_IZVK_####_TKST_#
100
AcDbLine
 10
552662.207398
 20
335213.963546
 30
0.0
 11
552663.832866
 21
335216.816591
 31
0.0
  0
TEXT
  5
871
330
BFE
100
AcDbEntity
  8
SAKK_IZVK_####_TKST_#
100
AcDbText
 10
552613.20214
 20
335286.144079
 30
0.0
 40
0.5
  1
o
 50
76.507343
  7
Tahoma_05_LB
100
AcDbText
  0
TEXT
  5
872
330
BFE
100
AcDbEntity
  8
SAKK_IZVK_####_TKST_#
100
AcDbText
 10
552606.610744
 20
335293.209154
 30
0.0
 40
0.5
  1
o
 50
359.78432
  7
Tahoma_05_LB
100
AcDbText
  0
TEXT
  5
873
330
BFE
100
AcDbEntity
  8
SAKK_IZVK_####_TKST_#
100
AcDbText
 10
552591.950313
 20
335273.041552
 30
0.0
 40
0.5
  1
oo
 50
313.419542
  7
Tahoma_05_LB
100
AcDbText
  0
TEXT
  5
874
330
BFE
100
AcDbEntity
  8
SAKK_IZVK_####_TKST_#
100
AcDbText
 10
552584.992675
 20
335270.759327
 30
0.0
 40
0.5
  1
oooo
 50
51.633654
  7
Tahoma_05_LB
100
AcDbText
  0
TEXT
  5
875
330
BFE
100
AcDbEntity
  8
SAKK_IZVK_####_TKST_#
100
AcDbText
 10
552608.610677
 20
335251.500794
 30
0.0
 40
0.5
  1
oooo
 50
51.9183
  7
Tahoma_05_LB
100
AcDbText
  0
TEXT
  5
876
330
BFE
100
AcDbEntity
  8
SAKK_IZVK_####_TKST_#
100
AcDbText
 10
552663.04051
 20
335215.728849
 30
0.0
 40
0.5
  1
oooo
 50
60.328502
  7
Tahoma_05_LB
100
AcDbText
  0
LWPOLYLINE
  5
881
330
BFE
100
AcDbEntity
  8
SAKK_KKAN_####_####_#
100
AcDbPolyline
 90
        2
 70
   128
 43
0.0
 10
552607.825
 20
335286.71
 10
552607.907232
 20
335308.554978
  0
LWPOLYLINE
  5
882
330
BFE
100
AcDbEntity
  8
SAKK_KKAN_####_####_#
100
AcDbPolyline
 90
        2
 70
   128
 43
0.0
 10
552607.825
 20
335286.71
 10
552616.277
 20
335284.682
  0
LWPOLYLINE
  5
883
330
BFE
100
AcDbEntity
  8
SAKK_KKAN_####_####_#
100
AcDbPolyline
 90
        2
 70
   128
 43
0.0
 10
552607.825
 20
335286.71
 10
552587.216
 20
335267.288
  0
TEXT
  5
887
330
BFE
100
AcDbEntity
  8
SAKK_KKAN_####_TKST_#
100
AcDbText
 10
552607.681393
 20
335288.408571
 30
0.0
 40
0.5
  1
k.a.94.93
 50
89.78432
  7
Tahoma_05_CB
 72
     1
 11
552607.686719
 21
335289.823437
 31
0.0
100
AcDbText
  0
TEXT
  5
888
330
BFE
100
AcDbEntity
  8
SAKK_KKAN_####_TKST_#
100
AcDbText
 10
552608.517479
 20
335286.698102
 30
0.0
 40
0.5
  1
k.a.95.63
 50
346.507343
  7
Tahoma_05_CB
 72
     1
 11
552609.893304
 21
335286.367982
 31
0.0
100
AcDbText
  0
TEXT
  5
889
330
BFE
100
AcDbEntity
  8
SAKK_KKAN_####_TKST_#
100
AcDbText
 10
552603.976023
 20
335283.27423
 30
0.0
 40
0.5
  1
k.a.95.33
 50
43.419542
  7
Tahoma_05_CB
 72
     1
 11
552605.003704
 21
335284.246724
 31
0.0
100
AcDbText
  0
TEXT
  5
88C
330
BFE
100
AcDbEntity
  8
SAKK_ELEM_####_TKST_#
100
AcDbText
 10
552608.235112
 20
335287.214161
 30
0.0
 40
0.5
  1
96.73 (zem grunts)
  7
Tahoma_05_LB
100
AcDbText
  0
TEXT
  5
88D
330
BFE
100
AcDbEntity
  8
SAKK_ELEM_####_TKST_#
100
AcDbText
 10
552587.88567
 20
335267.255355
 30
0.0
 40
0.5
  1
97.68
  7
Tahoma_05_LB
100
AcDbText
  0
TEXT
  5
88E
330
BFE
100
AcDbEntity
  8
SAKK_KKAN_####_TKST_#
100
AcDbText
 10
552587.952785
 20
335266.876306
 30
0.0
 40
0.5
  1
k.a.96.25
 50
321.9183
  7
Tahoma_05_CB
 72
     1
 11
552589.066479
 21
335266.003633
 31
0.0
100
AcDbText
  0
TEXT
  5
88F
330
BFE
100
AcDbEntity
  8
SAKK_ELEM_####_TKST_#
100
AcDbText
 10
552636.782452
 20
335229.228258
 30
0.0
 40
0.5
  1
97.87
  7
Tahoma_05_LB
100
AcDbText
  0
TEXT
  5
890
330
BFE
100
AcDbEntity
  8
SAKK_KKAN_####_TKST_#
100
AcDbText
 10
552634.028732
 20
335230.771908
 30
0.0
 40
0.5
  1
k.a.96.54
 50
321.9183
  7
Tahoma_05_CB
 72
     1
 11
552635.142426
 21
335229.899235
 31
0.0
100
AcDbText
  0
LWPOLYLINE
  5
89F
330
BFE
100
AcDbEntity
  8
SAKT_VADP_KABE_####_#
100
AcDbPolyline
 90
        6
 70
   128
 43
0.0
 10
552625.929686
 20
335274.36735
 10
552624.899
 20
335263.986
 10
552625.939
 20
335263.322
 10
552642.506
 20
335259.744
 10
552663.984
 20
335257.662
 10
552682.578158
 20
335257.198122
  0
INSERT
  5
8A3
330
BFE
100
AcDbEntity
  8
RELJ_ELEM_####_####_#
  6
Continuous
 62
     7
420
 16777215
 48
0.7
370
    13
100
AcDbBlockReference
  2
PKT
 10
552694.101
 20
335195.032
 30
0.0
  0
INSERT
  5
8A5
330
BFE
100
AcDbEntity
  8
RELJ_ELEM_####_####_#
  6
Continuous
 62
     7
420
 16777215
 48
0.7
370
    13
100
AcDbBlockReference
  2
PKT
 10
552644.584
 20
335219.553
 30
0.0
  0
INSERT
  5
8A7
330
BFE
100
AcDbEntity
  8
RELJ_ELEM_####_####_#
  6
Continuous
 62
     7
420
 16777215
 48
0.7
370
    13
100
AcDbBlockReference
  2
PKT
 10
552544.22
 20
335299.102
 30
0.0
  0
INSERT
  5
8A9
330
BFE
100
AcDbEntity
  8
RELJ_ELEM_####_####_#
  6
Continuous
 62
     7
420
 16777215
 48
0.7
370
    13
100
AcDbBlockReference
  2
PKT
 10
552663.999
 20
335240.852
 30
0.0
  0
INSERT
  5
8AB
330
BFE
100
AcDbEntity
  8
RELJ_ELEM_####_####_#
  6
Continuous
 62
     7
420
 16777215
 48
0.7
370
    13
100
AcDbBlockReference
  2
PKT
 10
552653.149
 20
335222.983
 30
0.0
  0
INSERT
  5
8AD
330
BFE
100
AcDbEntity
  8
RELJ_ELEM_####_####_#
  6
Continuous
 62
     7
420
 16777215
 48
0.7
370
    13
100
AcDbBlockReference
  2
PKT
 10
552653.238
 20
335222.753
 30
0.0
  0
INSERT
  5
8AF
330
BFE
100
AcDbEntity
  8
RELJ_ELEM_####_####_#
  6
Continuous
 62
     7
420
 16777215
 48
0.7
370
    13
100
AcDbBlockReference
  2
PKT
 10
552652.976
 20
335221.387
 30
0.0
  0
INSERT
  5
8B1
330
BFE
100
AcDbEntity
  8
RELJ_ELEM_####_####_#
  6
Continuous
 62
     7
420
 16777215
 48
0.7
370
    13
100
AcDbBlockReference
  2
PKT
 10
552652.796
 20
335219.364
 30
0.0
  0
INSERT
  5
8B3
330
BFE
100
AcDbEntity
  8
RELJ_ELEM_####_####_#
  6
Continuous
 62
     7
420
 16777215
 48
0.7
370
    13
100
AcDbBlockReference
  2
PKT
 10
552652.773
 20
335218.37
 30
0.0
  0
INSERT
  5
8B5
330
BFE
100
AcDbEntity
  8
RELJ_ELEM_####_####_#
  6
Continuous
 62
     7
420
 16777215
 48
0.7
370
    13
100
AcDbBlockReference
  2
PKT
 10
552652.907
 20
335218.433
 30
0.0
  0
INSERT
  5
8B7
330
BFE
100
AcDbEntity
  8
RELJ_ELEM_####_####_#
  6
Continuous
 62
     7
420
 16777215
 48
0.7
370
    13
100
AcDbBlockReference
  2
PKT
 10
552652.822
 20
335217.385
 30
0.0
  0
INSERT
  5
8B9
330
BFE
100
AcDbEntity
  8
RELJ_ELEM_####_####_#
  6
Continuous
 62
     7
420
 16777215
 48
0.7
370
    13
100
AcDbBlockReference
  2
PKT
 10
552652.978
 20
335216.407
 30
0.0
  0
INSERT
  5
8BB
330
BFE
100
AcDbEntity
  8
RELJ_ELEM_####_####_#
  6
Continuous
 62
     7
420
 16777215
 48
0.7
370
    13
100
AcDbBlockReference
  2
PKT
 10
552653.508
 20
335215.021
 30
0.0
  0
INSERT
  5
8BD
330
BFE
100
AcDbEntity
  8
RELJ_ELEM_####_####_#
  6
Continuous
 62
     7
420
 16777215
 48
0.7
370
    13
100
AcDbBlockReference
  2
PKT
 10
552653.551
 20
335214.485
 30
0.0
  0
INSERT
  5
8BF
330
BFE
100
AcDbEntity
  8
RELJ_ELEM_####_####_#
  6
Continuous
 62
     7
420
 16777215
 48
0.7
370
    13
100
AcDbBlockReference
  2
PKT
 10
552655.763
 20
335212.477
 30
0.0
  0
INSERT
  5
8C1
330
BFE
100
AcDbEntity
  8
RELJ_ELEM_####_####_#
  6
Continuous
 62
     7
420
 16777215
 48
0.7
370
    13
100
AcDbBlockReference
  2
PKT
 10
552656.112
 20
335213.062
 30
0.0
  0
INSERT
  5
8C3
330
BFE
100
AcDbEntity
  8
RELJ_ELEM_####_####_#
  6
Continuous
 62
     7
420
 16777215
 48
0.7
370
    13
100
AcDbBlockReference
  2
PKT
 10
552656.426
 20
335213.282
 30
0.0
  0
INSERT
  5
8C5
330
BFE
100
AcDbEntity
  8
RELJ_ELEM_####_####_#
  6
Continuous
 62
     7
420
 16777215
 48
0.7
370
    13
100
AcDbBlockReference
  2
PKT
 10
552657.173
 20
335214.57
 30
0.0
  0
INSERT
  5
8C7
330
BFE
100
AcDbEntity
  8
RELJ_ELEM_####_####_#
  6
Continuous
 62
     7
420
 16777215
 48
0.7
370
    13
100
AcDbBlockReference
  2
PKT
 10
552656.142
 20
335216.82
 30
0.0
  0
INSERT
  5
8C9
330
BFE
100
AcDbEntity
  8
RELJ_ELEM_####_####_#
  6
Continuous
 62
     7
420
 16777215
 48
0.7
370
    13
100
AcDbBlockReference
  2
PKT
 10
552657.807
 20
335217.904
 30
0.0
  0
INSERT
  5
8CB
330
BFE
100
AcDbEntity
  8
RELJ_ELEM_####_####_#
  6
Continuous
 62
     7
420
 16777215
 48
0.7
370
    13
100
AcDbBlockReference
  2
PKT
 10
552657.832
 20
335220.673
 30
0.0
  0
INSERT
  5
8CD
330
BFE
100
AcDbEntity
  8
RELJ_ELEM_####_####_#
  6
Continuous
 62
     7
420
 16777215
 48
0.7
370
    13
100
AcDbBlockReference
  2
PKT
 10
552665.841
 20
335210.77
 30
0.0
  0
INSERT
  5
8CF
330
BFE
100
AcDbEntity
  8
RELJ_ELEM_####_####_#
  6
Continuous
 62
     7
420
 16777215
 48
0.7
370
    13
100
AcDbBlockReference
  2
PKT
 10
552665.181
 20
335209.844
 30
0.0
  0
INSERT
  5
8D1
330
BFE
100
AcDbEntity
  8
RELJ_ELEM_####_####_#
  6
Continuous
 62
     7
420
 16777215
 48
0.7
370
    13
100
AcDbBlockReference
  2
PKT
 10
552664.426
 20
335208.538
 30
0.0
  0
INSERT
  5
8D3
330
BFE
100
AcDbEntity
  8
RELJ_ELEM_####_####_#
  6
Continuous
 62
     7
420
 16777215
 48
0.7
370
    13
100
AcDbBlockReference
  2
PKT
 10
552663.865
 20
335207.735
 30
0.0
  0
INSERT
  5
8D5
330
BFE
100
AcDbEntity
  8
RELJ_ELEM_####_####_#
  6
Continuous
 62
     7
420
 16777215
 48
0.7
370
    13
100
AcDbBlockReference
  2
PKT
 10
552675.277
 20
335201.334
 30
0.0
  0
INSERT
  5
8D7
330
BFE
100
AcDbEntity
  8
RELJ_ELEM_####_####_#
  6
Continuous
 62
     7
420
 16777215
 48
0.7
370
    13
100
AcDbBlockReference
  2
PKT
 10
552675.514
 20
335201.998
 30
0.0
  0
INSERT
  5
8D9
330
BFE
100
AcDbEntity
  8
RELJ_ELEM_####_####_#
  6
Continuous
 62
     7
420
 16777215
 48
0.7
370
    13
100
AcDbBlockReference
  2
PKT
 10
552676.243
 20
335203.258
 30
0.0
  0
INSERT
  5
8DB
330
BFE
100
AcDbEntity
  8
RELJ_ELEM_####_####_#
  6
Continuous
 62
     7
420
 16777215
 48
0.7
370
    13
100
AcDbBlockReference
  2
PKT
 10
552676.757
 20
335204.369
 30
0.0
  0
INSERT
  5
8DD
330
BFE
100
AcDbEntity
  8
RELJ_ELEM_####_####_#
  6
Continuous
 62
     7
420
 16777215
 48
0.7
370
    13
100
AcDbBlockReference
  2
PKT
 10
552671.793
 20
335210.344
 30
0.0
  0
INSERT
  5
8DF
330
BFE
100
AcDbEntity
  8
RELJ_ELEM_####_####_#
  6
Continuous
 62
     7
420
 16777215
 48
0.7
370
    13
100
AcDbBlockReference
  2
PKT
 10
552671.089
 20
335213.622
 30
0.0
  0
INSERT
  5
8E1
330
BFE
100
AcDbEntity
  8
RELJ_ELEM_####_####_#
  6
Continuous
 62
     7
420
 16777215
 48
0.7
370
    13
100
AcDbBlockReference
  2
PKT
 10
552669.647
 20
335214.207
 30
0.0
  0
INSERT
  5
8E3
330
BFE
100
AcDbEntity
  8
RELJ_ELEM_####_####_#
  6
Continuous
 62
     7
420
 16777215
 48
0.7
370
    13
100
AcDbBlockReference
  2
PKT
 10
552675.396
 20
335216.089
 30
0.0
  0
INSERT
  5
8E5
330
BFE
100
AcDbEntity
  8
RELJ_ELEM_####_####_#
  6
Continuous
 62
     7
420
 16777215
 48
0.7
370
    13
100
AcDbBlockReference
  2
PKT
 10
552678.147
 20
335217.305
 30
0.0
  0
INSERT
  5
8E7
330
BFE
100
AcDbEntity
  8
RELJ_ELEM_####_####_#
  6
Continuous
 62
     7
420
 16777215
 48
0.7
370
    13
100
AcDbBlockReference
  2
PKT
 10
552677.18
 20
335217.672
 30
0.0
  0
INSERT
  5
8E9
330
BFE
100
AcDbEntity
  8
RELJ_ELEM_####_####_#
  6
Continuous
 62
     7
420
 16777215
 48
0.7
370
    13
100
AcDbBlockReference
  2
PKT
 10
552679.667
 20
335217.085
 30
0.0
  0
INSERT
  5
8EB
330
BFE
100
AcDbEntity
  8
RELJ_ELEM_####_####_#
  6
Continuous
 62
     7
420
 16777215
 48
0.7
370
    13
100
AcDbBlockReference
  2
PKT
 10
552678.752
 20
335217.169
 30
0.0
  0
INSERT
  5
8ED
330
BFE
100
AcDbEntity
  8
RELJ_ELEM_####_####_#
  6
Continuous
 62
     7
420
 16777215
 48
0.7
370
    13
100
AcDbBlockReference
  2
PKT
 10
552680.058
 20
335208.89
 30
0.0
  0
INSERT
  5
8EF
330
BFE
100
AcDbEntity
  8
RELJ_ELEM_####_####_#
  6
Continuous
 62
     7
420
 16777215
 48
0.7
370
    13
100
AcDbBlockReference
  2
PKT
 10
552676.87
 20
335206.323
 30
0.0
  0
INSERT
  5
8F1
330
BFE
100
AcDbEntity
  8
RELJ_ELEM_####_####_#
  6
Continuous
 62
     7
420
 16777215
 48
0.7
370
    13
100
AcDbBlockReference
  2
PKT
 10
552668.292
 20
335219.64
 30
0.0
  0
INSERT
  5
8F3
330
BFE
100
AcDbEntity
  8
RELJ_ELEM_####_####_#
  6
Continuous
 62
     7
420
 16777215
 48
0.7
370
    13
100
AcDbBlockReference
  2
PKT
 10
552658.37
 20
335227.069
 30
0.0
  0
INSERT
  5
8F5
330
BFE
100
AcDbEntity
  8
RELJ_ELEM_####_####_#
  6
Continuous
 62
     7
420
 16777215
 48
0.7
370
    13
100
AcDbBlockReference
  2
PKT
 10
552658.531
 20
335227.15
 30
0.0
  0
INSERT
  5
8F7
330
BFE
100
AcDbEntity
  8
RELJ_ELEM_####_####_#
  6
Continuous
 62
     7
420
 16777215
 48
0.7
370
    13
100
AcDbBlockReference
  2
PKT
 10
552659.197
 20
335234.128
 30
0.0
  0
INSERT
  5
8F9
330
BFE
100
AcDbEntity
  8
RELJ_ELEM_####_####_#
  6
Continuous
 62
     7
420
 16777215
 48
0.7
370
    13
100
AcDbBlockReference
  2
PKT
 10
552658.987
 20
335234.208
 30
0.0
  0
INSERT
  5
8FB
330
BFE
100
AcDbEntity
  8
RELJ_ELEM_####_####_#
  6
Continuous
 62
     7
420
 16777215
 48
0.7
370
    13
100
AcDbBlockReference
  2
PKT
 10
552668.508
 20
335233.371
 30
0.0
  0
INSERT
  5
8FD
330
BFE
100
AcDbEntity
  8
RELJ_ELEM_####_####_#
  6
Continuous
 62
     7
420
 16777215
 48
0.7
370
    13
100
AcDbBlockReference
  2
PKT
 10
552675.13
 20
335233.004
 30
0.0
  0
INSERT
  5
8FF
330
BFE
100
AcDbEntity
  8
RELJ_ELEM_####_####_#
  6
Continuous
 62
     7
420
 16777215
 48
0.7
370
    13
100
AcDbBlockReference
  2
PKT
 10
552678.192
 20
335239.11
 30
0.0
  0
INSERT
  5
901
330
BFE
100
AcDbEntity
  8
RELJ_ELEM_####_####_#
  6
Continuous
 62
     7
420
 16777215
 48
0.7
370
    13
100
AcDbBlockReference
  2
PKT
 10
552669.946
 20
335240.761
 30
0.0
  0
INSERT
  5
903
330
BFE
100
AcDbEntity
  8
RELJ_ELEM_####_####_#
  6
Continuous
 62
     7
420
 16777215
 48
0.7
370
    13
100
AcDbBlockReference
  2
PKT
 10
552659.701
 20
335242.659
 30
0.0
  0
INSERT
  5
905
330
BFE
100
AcDbEntity
  8
RELJ_ELEM_####_####_#
  6
Continuous
 62
     7
420
 16777215
 48
0.7
370
    13
100
AcDbBlockReference
  2
PKT
 10
552659.857
 20
335242.67
 30
0.0
  0
INSERT
  5
907
330
BFE
100
AcDbEntity
  8
RELJ_ELEM_####_####_#
  6
Continuous
 62
     7
420
 16777215
 48
0.7
370
    13
100
AcDbBlockReference
  2
PKT
 10
552660.771
 20
335253.714
 30
0.0
  0
INSERT
  5
909
330
BFE
100
AcDbEntity
  8
RELJ_ELEM_####_####_#
  6
Continuous
 62
     7
420
 16777215
 48
0.7
370
    13
100
AcDbBlockReference
  2
PKT
 10
552660.619
 20
335253.699
 30
0.0
  0
INSERT
  5
90B
330
BFE
100
AcDbEntity
  8
RELJ_ELEM_####_####_#
  6
Continuous
 62
     7
420
 16777215
 48
0.7
370
    13
100
AcDbBlockReference
  2
PKT
 10
552661.887
 20
335252.115
 30
0.0
  0
INSERT
  5
90D
330
BFE
100
AcDbEntity
  8
RELJ_ELEM_####_####_#
  6
Continuous
 62
     7
420
 16777215
 48
0.7
370
    13
100
AcDbBlockReference
  2
PKT
 10
552668.297
 20
335251.341
 30
0.0
  0
INSERT
  5
90F
330
BFE
100
AcDbEntity
  8
RELJ_ELEM_####_####_#
  6
Continuous
 62
     7
420
 16777215
 48
0.7
370
    13
100
AcDbBlockReference
  2
PKT
 10
552672.223
 20
335250.688
 30
0.0
  0
INSERT
  5
911
330
BFE
100
AcDbEntity
  8
RELJ_ELEM_####_####_#
  6
Continuous
 62
     7
420
 16777215
 48
0.7
370
    13
100
AcDbBlockReference
  2
PKT
 10
552679.683
 20
335251.479
 30
0.0
  0
INSERT
  5
913
330
BFE
100
AcDbEntity
  8
RELJ_ELEM_####_####_#
  6
Continuous
 62
     7
420
 16777215
 48
0.7
370
    13
100
AcDbBlockReference
  2
PKT
 10
552680.847
 20
335260.243
 30
0.0
  0
INSERT
  5
915
330
BFE
100
AcDbEntity
  8
RELJ_ELEM_####_####_#
  6
Continuous
 62
     7
420
 16777215
 48
0.7
370
    13
100
AcDbBlockReference
  2
PKT
 10
552681.336
 20
335260.293
 30
0.0
  0
INSERT
  5
917
330
BFE
100
AcDbEntity
  8
RELJ_ELEM_####_####_#
  6
Continuous
 62
     7
420
 16777215
 48
0.7
370
    13
100
AcDbBlockReference
  2
PKT
 10
552674.035
 20
335260.451
 30
0.0
  0
INSERT
  5
919
330
BFE
100
AcDbEntity
  8
RELJ_ELEM_####_####_#
  6
Continuous
 62
     7
420
 16777215
 48
0.7
370
    13
100
AcDbBlockReference
  2
PKT
 10
552663.865
 20
335260.232
 30
0.0
  0
INSERT
  5
91B
330
BFE
100
AcDbEntity
  8
RELJ_ELEM_####_####_#
  6
Continuous
 62
     7
420
 16777215
 48
0.7
370
    13
100
AcDbBlockReference
  2
PKT
 10
552663.494
 20
335260.323
 30
0.0
  0
INSERT
  5
91D
330
BFE
100
AcDbEntity
  8
RELJ_ELEM_####_####_#
  6
Continuous
 62
     7
420
 16777215
 48
0.7
370
    13
100
AcDbBlockReference
  2
PKT
 10
552663.072
 20
335260.976
 30
0.0
  0
INSERT
  5
91F
330
BFE
100
AcDbEntity
  8
RELJ_ELEM_####_####_#
  6
Continuous
 62
     7
420
 16777215
 48
0.7
370
    13
100
AcDbBlockReference
  2
PKT
 10
552663.041
 20
335261.224
 30
0.0
  0
INSERT
  5
921
330
BFE
100
AcDbEntity
  8
RELJ_ELEM_####_####_#
  6
Continuous
 62
     7
420
 16777215
 48
0.7
370
    13
100
AcDbBlockReference
  2
PKT
 10
552663.698
 20
335261.87
 30
0.0
  0
INSERT
  5
923
330
BFE
100
AcDbEntity
  8
RELJ_ELEM_####_####_#
  6
Continuous
 62
     7
420
 16777215
 48
0.7
370
    13
100
AcDbBlockReference
  2
PKT
 10
552663.902
 20
335261.763
 30
0.0
  0
INSERT
  5
925
330
BFE
100
AcDbEntity
  8
RELJ_ELEM_####_####_#
  6
Continuous
 62
     7
420
 16777215
 48
0.7
370
    13
100
AcDbBlockReference
  2
PKT
 10
552664.092
 20
335260.686
 30
0.0
  0
INSERT
  5
927
330
BFE
100
AcDbEntity
  8
RELJ_ELEM_####_####_#
  6
Continuous
 62
     7
420
 16777215
 48
0.7
370
    13
100
AcDbBlockReference
  2
PKT
 10
552667.877
 20
335265.339
 30
0.0
  0
INSERT
  5
929
330
BFE
100
AcDbEntity
  8
RELJ_ELEM_####_####_#
  6
Continuous
 62
     7
420
 16777215
 48
0.7
370
    13
100
AcDbBlockReference
  2
PKT
 10
552667.193
 20
335265.726
 30
0.0
  0
INSERT
  5
92B
330
BFE
100
AcDbEntity
  8
RELJ_ELEM_####_####_#
  6
Continuous
 62
     7
420
 16777215
 48
0.7
370
    13
100
AcDbBlockReference
  2
PKT
 10
552664.073
 20
335266.779
 30
0.0
  0
INSERT
  5
92D
330
BFE
100
AcDbEntity
  8
RELJ_ELEM_####_####_#
  6
Continuous
 62
     7
420
 16777215
 48
0.7
370
    13
100
AcDbBlockReference
  2
PKT
 10
552667.522
 20
335266.509
 30
0.0
  0
INSERT
  5
92F
330
BFE
100
AcDbEntity
  8
RELJ_ELEM_####_####_#
  6
Continuous
 62
     7
420
 16777215
 48
0.7
370
    13
100
AcDbBlockReference
  2
PKT
 10
552668.298
 20
335266.292
 30
0.0
  0
INSERT
  5
931
330
BFE
100
AcDbEntity
  8
RELJ_ELEM_####_####_#
  6
Continuous
 62
     7
420
 16777215
 48
0.7
370
    13
100
AcDbBlockReference
  2
PKT
 10
552668.945
 20
335273.542
 30
0.0
  0
INSERT
  5
933
330
BFE
100
AcDbEntity
  8
RELJ_ELEM_####_####_#
  6
Continuous
 62
     7
420
 16777215
 48
0.7
370
    13
100
AcDbBlockReference
  2
PKT
 10
552668.874
 20
335273.536
 30
0.0
  0
INSERT
  5
935
330
BFE
100
AcDbEntity
  8
RELJ_ELEM_####_####_#
  6
Continuous
 62
     7
420
 16777215
 48
0.7
370
    13
100
AcDbBlockReference
  2
PKT
 10
552668.861
 20
335274.658
 30
0.0
  0
INSERT
  5
937
330
BFE
100
AcDbEntity
  8
RELJ_ELEM_####_####_#
  6
Continuous
 62
     7
420
 16777215
 48
0.7
370
    13
100
AcDbBlockReference
  2
PKT
 10
552667.852
 20
335273.569
 30
0.0
  0
INSERT
  5
939
330
BFE
100
AcDbEntity
  8
RELJ_ELEM_####_####_#
  6
Continuous
 62
     7
420
 16777215
 48
0.7
370
    13
100
AcDbBlockReference
  2
PKT
 10
552669.238
 20
335278.632
 30
0.0
  0
INSERT
  5
93B
330
BFE
100
AcDbEntity
  8
RELJ_ELEM_####_####_#
  6
Continuous
 62
     7
420
 16777215
 48
0.7
370
    13
100
AcDbBlockReference
  2
PKT
 10
552669.385
 20
335278.642
 30
0.0
  0
INSERT
  5
93D
330
BFE
100
AcDbEntity
  8
RELJ_ELEM_####_####_#
  6
Continuous
 62
     7
420
 16777215
 48
0.7
370
    13
100
AcDbBlockReference
  2
PKT
 10
552669.813
 20
335280.064
 30
0.0
  0
INSERT
  5
93F
330
BFE
100
AcDbEntity
  8
RELJ_ELEM_####_####_#
  6
Continuous
 62
     7
420
 16777215
 48
0.7
370
    13
100
AcDbBlockReference
  2
PKT
 10
552669.694
 20
335280.136
 30
0.0
  0
INSERT
  5
941
330
BFE
100
AcDbEntity
  8
RELJ_ELEM_####_####_#
  6
Continuous
 62
     7
420
 16777215
 48
0.7
370
    13
100
AcDbBlockReference
  2
PKT
 10
552670.357
 20
335281.071
 30
0.0
  0
INSERT
  5
943
330
BFE
100
AcDbEntity
  8
RELJ_ELEM_####_####_#
  6
Continuous
 62
     7
420
 16777215
 48
0.7
370
    13
100
AcDbBlockReference
  2
PKT
 10
552671.041
 20
335281.411
 30
0.0
  0
INSERT
  5
945
330
BFE
100
AcDbEntity
  8
RELJ_ELEM_####_####_#
  6
Continuous
 62
     7
420
 16777215
 48
0.7
370
    13
100
AcDbBlockReference
  2
PKT
 10
552671.071
 20
335281.284
 30
0.0
  0
INSERT
  5
947
330
BFE
100
AcDbEntity
  8
RELJ_ELEM_####_####_#
  6
Continuous
 62
     7
420
 16777215
 48
0.7
370
    13
100
AcDbBlockReference
  2
PKT
 10
552674.808
 20
335277.035
 30
0.0
  0
INSERT
  5
949
330
BFE
100
AcDbEntity
  8
RELJ_ELEM_####_####_#
  6
Continuous
 62
     7
420
 16777215
 48
0.7
370
    13
100
AcDbBlockReference
  2
PKT
 10
552678.508
 20
335282.598
 30
0.0
  0
INSERT
  5
94B
330
BFE
100
AcDbEntity
  8
RELJ_ELEM_####_####_#
  6
Continuous
 62
     7
420
 16777215
 48
0.7
370
    13
100
AcDbBlockReference
  2
PKT
 10
552678.652
 20
335282.629
 30
0.0
  0
INSERT
  5
94D
330
BFE
100
AcDbEntity
  8
RELJ_ELEM_####_####_#
  6
Continuous
 62
     7
420
 16777215
 48
0.7
370
    13
100
AcDbBlockReference
  2
PKT
 10
552679.072
 20
335290.342
 30
0.0
  0
INSERT
  5
94F
330
BFE
100
AcDbEntity
  8
RELJ_ELEM_####_####_#
  6
Continuous
 62
     7
420
 16777215
 48
0.7
370
    13
100
AcDbBlockReference
  2
PKT
 10
552679.224
 20
335290.347
 30
0.0
  0
INSERT
  5
951
330
BFE
100
AcDbEntity
  8
RELJ_ELEM_####_####_#
  6
Continuous
 62
     7
420
 16777215
 48
0.7
370
    13
100
AcDbBlockReference
  2
PKT
 10
552679.753
 20
335296.685
 30
0.0
  0
INSERT
  5
953
330
BFE
100
AcDbEntity
  8
RELJ_ELEM_####_####_#
  6
Continuous
 62
     7
420
 16777215
 48
0.7
370
    13
100
AcDbBlockReference
  2
PKT
 10
552682.339
 20
335296.077
 30
0.0
  0
INSERT
  5
955
330
BFE
100
AcDbEntity
  8
RELJ_ELEM_####_####_#
  6
Continuous
 62
     7
420
 16777215
 48
0.7
370
    13
100
AcDbBlockReference
  2
PKT
 10
552676.027
 20
335297.4
 30
0.0
  0
INSERT
  5
957
330
BFE
100
AcDbEntity
  8
RELJ_ELEM_####_####_#
  6
Continuous
 62
     7
420
 16777215
 48
0.7
370
    13
100
AcDbBlockReference
  2
PKT
 10
552674.063
 20
335291.186
 30
0.0
  0
INSERT
  5
959
330
BFE
100
AcDbEntity
  8
RELJ_ELEM_####_####_#
  6
Continuous
 62
     7
420
 16777215
 48
0.7
370
    13
100
AcDbBlockReference
  2
PKT
 10
552667.318
 20
335267.591
 30
0.0
  0
INSERT
  5
95B
330
BFE
100
AcDbEntity
  8
RELJ_ELEM_####_####_#
  6
Continuous
 62
     7
420
 16777215
 48
0.7
370
    13
100
AcDbBlockReference
  2
PKT
 10
552664.434
 20
335267.833
 30
0.0
  0
INSERT
  5
95D
330
BFE
100
AcDbEntity
  8
RELJ_ELEM_####_####_#
  6
Continuous
 62
     7
420
 16777215
 48
0.7
370
    13
100
AcDbBlockReference
  2
PKT
 10
552663.999
 20
335269.778
 30
0.0
  0
INSERT
  5
95F
330
BFE
100
AcDbEntity
  8
RELJ_ELEM_####_####_#
  6
Continuous
 62
     7
420
 16777215
 48
0.7
370
    13
100
AcDbBlockReference
  2
PKT
 10
552664.09
 20
335270.747
 30
0.0
  0
INSERT
  5
961
330
BFE
100
AcDbEntity
  8
RELJ_ELEM_####_####_#
  6
Continuous
 62
     7
420
 16777215
 48
0.7
370
    13
100
AcDbBlockReference
  2
PKT
 10
552663.133
 20
335262.378
 30
0.0
  0
INSERT
  5
963
330
BFE
100
AcDbEntity
  8
RELJ_ELEM_####_####_#
  6
Continuous
 62
     7
420
 16777215
 48
0.7
370
    13
100
AcDbBlockReference
  2
PKT
 10
552663.193
 20
335262.38
 30
0.0
  0
INSERT
  5
965
330
BFE
100
AcDbEntity
  8
RELJ_ELEM_####_####_#
  6
Continuous
 62
     7
420
 16777215
 48
0.7
370
    13
100
AcDbBlockReference
  2
PKT
 10
552663.113
 20
335261.552
 30
0.0
  0
INSERT
  5
967
330
BFE
100
AcDbEntity
  8
RELJ_ELEM_####_####_#
  6
Continuous
 62
     7
420
 16777215
 48
0.7
370
    13
100
AcDbBlockReference
  2
PKT
 10
552662.509
 20
335261.654
 30
0.0
  0
INSERT
  5
969
330
BFE
100
AcDbEntity
  8
RELJ_ELEM_####_####_#
  6
Continuous
 62
     7
420
 16777215
 48
0.7
370
    13
100
AcDbBlockReference
  2
PKT
 10
552659.3
 20
335261.873
 30
0.0
  0
INSERT
  5
96B
330
BFE
100
AcDbEntity
  8
RELJ_ELEM_####_####_#
  6
Continuous
 62
     7
420
 16777215
 48
0.7
370
    13
100
AcDbBlockReference
  2
PKT
 10
552656.352
 20
335262.094
 30
0.0
  0
INSERT
  5
96D
330
BFE
100
AcDbEntity
  8
RELJ_ELEM_####_####_#
  6
Continuous
 62
     7
420
 16777215
 48
0.7
370
    13
100
AcDbBlockReference
  2
PKT
 10
552652.98
 20
335262.475
 30
0.0
  0
INSERT
  5
96F
330
BFE
100
AcDbEntity
  8
RELJ_ELEM_####_####_#
  6
Continuous
 62
     7
420
 16777215
 48
0.7
370
    13
100
AcDbBlockReference
  2
PKT
 10
552649.663
 20
335262.782
 30
0.0
  0
INSERT
  5
971
330
BFE
100
AcDbEntity
  8
RELJ_ELEM_####_####_#
  6
Continuous
 62
     7
420
 16777215
 48
0.7
370
    13
100
AcDbBlockReference
  2
PKT
 10
552646.483
 20
335263.091
 30
0.0
  0
INSERT
  5
973
330
BFE
100
AcDbEntity
  8
RELJ_ELEM_####_####_#
  6
Continuous
 62
     7
420
 16777215
 48
0.7
370
    13
100
AcDbBlockReference
  2
PKT
 10
552641.143
 20
335268.131
 30
0.0
  0
INSERT
  5
975
330
BFE
100
AcDbEntity
  8
RELJ_ELEM_####_####_#
  6
Continuous
 62
     7
420
 16777215
 48
0.7
370
    13
100
AcDbBlockReference
  2
PKT
 10
552637.414
 20
335268.459
 30
0.0
  0
INSERT
  5
977
330
BFE
100
AcDbEntity
  8
RELJ_ELEM_####_####_#
  6
Continuous
 62
     7
420
 16777215
 48
0.7
370
    13
100
AcDbBlockReference
  2
PKT
 10
552630.928
 20
335269.023
 30
0.0
  0
INSERT
  5
979
330
BFE
100
AcDbEntity
  8
RELJ_ELEM_####_####_#
  6
Continuous
 62
     7
420
 16777215
 48
0.7
370
    13
100
AcDbBlockReference
  2
PKT
 10
552626.25
 20
335265.426
 30
0.0
  0
INSERT
  5
97B
330
BFE
100
AcDbEntity
  8
RELJ_ELEM_####_####_#
  6
Continuous
 62
     7
420
 16777215
 48
0.7
370
    13
100
AcDbBlockReference
  2
PKT
 10
552630.365
 20
335268.615
 30
0.0
  0
INSERT
  5
97D
330
BFE
100
AcDbEntity
  8
RELJ_ELEM_####_####_#
  6
Continuous
 62
     7
420
 16777215
 48
0.7
370
    13
100
AcDbBlockReference
  2
PKT
 10
552632.258
 20
335265.414
 30
0.0
  0
INSERT
  5
97F
330
BFE
100
AcDbEntity
  8
RELJ_ELEM_####_####_#
  6
Continuous
 62
     7
420
 16777215
 48
0.7
370
    13
100
AcDbBlockReference
  2
PKT
 10
552637.119
 20
335268.2
 30
0.0
  0
INSERT
  5
981
330
BFE
100
AcDbEntity
  8
RELJ_ELEM_####_####_#
  6
Continuous
 62
     7
420
 16777215
 48
0.7
370
    13
100
AcDbBlockReference
  2
PKT
 10
552637.619
 20
335266.908
 30
0.0
  0
INSERT
  5
983
330
BFE
100
AcDbEntity
  8
RELJ_ELEM_####_####_#
  6
Continuous
 62
     7
420
 16777215
 48
0.7
370
    13
100
AcDbBlockReference
  2
PKT
 10
552640.572
 20
335266.679
 30
0.0
  0
INSERT
  5
985
330
BFE
100
AcDbEntity
  8
RELJ_ELEM_####_####_#
  6
Continuous
 62
     7
420
 16777215
 48
0.7
370
    13
100
AcDbBlockReference
  2
PKT
 10
552641.265
 20
335267.874
 30
0.0
  0
INSERT
  5
987
330
BFE
100
AcDbEntity
  8
RELJ_ELEM_####_####_#
  6
Continuous
 62
     7
420
 16777215
 48
0.7
370
    13
100
AcDbBlockReference
  2
PKT
 10
552643.369
 20
335262.679
 30
0.0
  0
INSERT
  5
989
330
BFE
100
AcDbEntity
  8
RELJ_ELEM_####_####_#
  6
Continuous
 62
     7
420
 16777215
 48
0.7
370
    13
100
AcDbBlockReference
  2
PKT
 10
552642.422
 20
335259.242
 30
0.0
  0
INSERT
  5
98B
330
BFE
100
AcDbEntity
  8
RELJ_ELEM_####_####_#
  6
Continuous
 62
     7
420
 16777215
 48
0.7
370
    13
100
AcDbBlockReference
  2
PKT
 10
552645.902
 20
335262.773
 30
0.0
  0
INSERT
  5
98D
330
BFE
100
AcDbEntity
  8
RELJ_ELEM_####_####_#
  6
Continuous
 62
     7
420
 16777215
 48
0.7
370
    13
100
AcDbBlockReference
  2
PKT
 10
552652.99
 20
335262.165
 30
0.0
  0
INSERT
  5
98F
330
BFE
100
AcDbEntity
  8
RELJ_ELEM_####_####_#
  6
Continuous
 62
     7
420
 16777215
 48
0.7
370
    13
100
AcDbBlockReference
  2
PKT
 10
552653.211
 20
335260.735
 30
0.0
  0
INSERT
  5
991
330
BFE
100
AcDbEntity
  8
RELJ_ELEM_####_####_#
  6
Continuous
 62
     7
420
 16777215
 48
0.7
370
    13
100
AcDbBlockReference
  2
PKT
 10
552656.151
 20
335260.454
 30
0.0
  0
INSERT
  5
993
330
BFE
100
AcDbEntity
  8
RELJ_ELEM_####_####_#
  6
Continuous
 62
     7
420
 16777215
 48
0.7
370
    13
100
AcDbBlockReference
  2
PKT
 10
552656.8
 20
335261.855
 30
0.0
  0
INSERT
  5
995
330
BFE
100
AcDbEntity
  8
RELJ_ELEM_####_####_#
  6
Continuous
 62
     7
420
 16777215
 48
0.7
370
    13
100
AcDbBlockReference
  2
PKT
 10
552656.097
 20
335259.305
 30
0.0
  0
INSERT
  5
997
330
BFE
100
AcDbEntity
  8
RELJ_ELEM_####_####_#
  6
Continuous
 62
     7
420
 16777215
 48
0.7
370
    13
100
AcDbBlockReference
  2
PKT
 10
552656.04
 20
335258.465
 30
0.0
  0
INSERT
  5
999
330
BFE
100
AcDbEntity
  8
RELJ_ELEM_####_####_#
  6
Continuous
 62
     7
420
 16777215
 48
0.7
370
    13
100
AcDbBlockReference
  2
PKT
 10
552656.41
 20
335257.512
 30
0.0
  0
INSERT
  5
99B
330
BFE
100
AcDbEntity
  8
RELJ_ELEM_####_####_#
  6
Continuous
 62
     7
420
 16777215
 48
0.7
370
    13
100
AcDbBlockReference
  2
PKT
 10
552656.734
 20
335254.622
 30
0.0
  0
INSERT
  5
99D
330
BFE
100
AcDbEntity
  8
RELJ_ELEM_####_####_#
  6
Continuous
 62
     7
420
 16777215
 48
0.7
370
    13
100
AcDbBlockReference
  2
PKT
 10
552656.785
 20
335254.781
 30
0.0
  0
INSERT
  5
99F
330
BFE
100
AcDbEntity
  8
RELJ_ELEM_####_####_#
  6
Continuous
 62
     7
420
 16777215
 48
0.7
370
    13
100
AcDbBlockReference
  2
PKT
 10
552655.795
 20
335254.871
 30
0.0
  0
INSERT
  5
9A1
330
BFE
100
AcDbEntity
  8
RELJ_ELEM_####_####_#
  6
Continuous
 62
     7
420
 16777215
 48
0.7
370
    13
100
AcDbBlockReference
  2
PKT
 10
552655.77
 20
335255.015
 30
0.0
  0
INSERT
  5
9A3
330
BFE
100
AcDbEntity
  8
RELJ_ELEM_####_####_#
  6
Continuous
 62
     7
420
 16777215
 48
0.7
370
    13
100
AcDbBlockReference
  2
PKT
 10
552654.867
 20
335254.157
 30
0.0
  0
INSERT
  5
9A5
330
BFE
100
AcDbEntity
  8
RELJ_ELEM_####_####_#
  6
Continuous
 62
     7
420
 16777215
 48
0.7
370
    13
100
AcDbBlockReference
  2
PKT
 10
552652.493
 20
335255.513
 30
0.0
  0
INSERT
  5
9A7
330
BFE
100
AcDbEntity
  8
RELJ_ELEM_####_####_#
  6
Continuous
 62
     7
420
 16777215
 48
0.7
370
    13
100
AcDbBlockReference
  2
PKT
 10
552652.744
 20
335256.385
 30
0.0
  0
INSERT
  5
9A9
330
BFE
100
AcDbEntity
  8
RELJ_ELEM_####_####_#
  6
Continuous
 62
     7
420
 16777215
 48
0.7
370
    13
100
AcDbBlockReference
  2
PKT
 10
552645.372
 20
335262.615
 30
0.0
  0
INSERT
  5
9AB
330
BFE
100
AcDbEntity
  8
RELJ_ELEM_####_####_#
  6
Continuous
 62
     7
420
 16777215
 48
0.7
370
    13
100
AcDbBlockReference
  2
PKT
 10
552642.544
 20
335263.402
 30
0.0
  0
INSERT
  5
9AD
330
BFE
100
AcDbEntity
  8
RELJ_ELEM_####_####_#
  6
Continuous
 62
     7
420
 16777215
 48
0.7
370
    13
100
AcDbBlockReference
  2
PKT
 10
552640.053
 20
335259.601
 30
0.0
  0
INSERT
  5
9AF
330
BFE
100
AcDbEntity
  8
RELJ_ELEM_####_####_#
  6
Continuous
 62
     7
420
 16777215
 48
0.7
370
    13
100
AcDbBlockReference
  2
PKT
 10
552639.972
 20
335258.645
 30
0.0
  0
INSERT
  5
9B1
330
BFE
100
AcDbEntity
  8
RELJ_ELEM_####_####_#
  6
Continuous
 62
     7
420
 16777215
 48
0.7
370
    13
100
AcDbBlockReference
  2
PKT
 10
552636.834
 20
335259.416
 30
0.0
  0
INSERT
  5
9B3
330
BFE
100
AcDbEntity
  8
RELJ_ELEM_####_####_#
  6
Continuous
 62
     7
420
 16777215
 48
0.7
370
    13
100
AcDbBlockReference
  2
PKT
 10
552636.994
 20
335260.386
 30
0.0
  0
INSERT
  5
9B5
330
BFE
100
AcDbEntity
  8
RELJ_ELEM_####_####_#
  6
Continuous
 62
     7
420
 16777215
 48
0.7
370
    13
100
AcDbBlockReference
  2
PKT
 10
552624.318
 20
335263.517
 30
0.0
  0
INSERT
  5
9B7
330
BFE
100
AcDbEntity
  8
RELJ_ELEM_####_####_#
  6
Continuous
 62
     7
420
 16777215
 48
0.7
370
    13
100
AcDbBlockReference
  2
PKT
 10
552624.109
 20
335262.59
 30
0.0
  0
INSERT
  5
9B9
330
BFE
100
AcDbEntity
  8
RELJ_ELEM_####_####_#
  6
Continuous
 62
     7
420
 16777215
 48
0.7
370
    13
100
AcDbBlockReference
  2
PKT
 10
552621.469
 20
335263.225
 30
0.0
  0
INSERT
  5
9BB
330
BFE
100
AcDbEntity
  8
RELJ_ELEM_####_####_#
  6
Continuous
 62
     7
420
 16777215
 48
0.7
370
    13
100
AcDbBlockReference
  2
PKT
 10
552621.208
 20
335263.354
 30
0.0
  0
INSERT
  5
9BD
330
BFE
100
AcDbEntity
  8
RELJ_ELEM_####_####_#
  6
Continuous
 62
     7
420
 16777215
 48
0.7
370
    13
100
AcDbBlockReference
  2
PKT
 10
552621.314
 20
335264.045
 30
0.0
  0
INSERT
  5
9BF
330
BFE
100
AcDbEntity
  8
RELJ_ELEM_####_####_#
  6
Continuous
 62
     7
420
 16777215
 48
0.7
370
    13
100
AcDbBlockReference
  2
PKT
 10
552620.398
 20
335262.792
 30
0.0
  0
INSERT
  5
9C1
330
BFE
100
AcDbEntity
  8
RELJ_ELEM_####_####_#
  6
Continuous
 62
     7
420
 16777215
 48
0.7
370
    13
100
AcDbBlockReference
  2
PKT
 10
552620.449
 20
335263.287
 30
0.0
  0
INSERT
  5
9C3
330
BFE
100
AcDbEntity
  8
RELJ_ELEM_####_####_#
  6
Continuous
 62
     7
420
 16777215
 48
0.7
370
    13
100
AcDbBlockReference
  2
PKT
 10
552620.502
 20
335264.302
 30
0.0
  0
INSERT
  5
9C5
330
BFE
100
AcDbEntity
  8
RELJ_ELEM_####_####_#
  6
Continuous
 62
     7
420
 16777215
 48
0.7
370
    13
100
AcDbBlockReference
  2
PKT
 10
552617.445
 20
335266.802
 30
0.0
  0
INSERT
  5
9C7
330
BFE
100
AcDbEntity
  8
RELJ_ELEM_####_####_#
  6
Continuous
 62
     7
420
 16777215
 48
0.7
370
    13
100
AcDbBlockReference
  2
PKT
 10
552615.334
 20
335265.708
 30
0.0
  0
INSERT
  5
9C9
330
BFE
100
AcDbEntity
  8
RELJ_ELEM_####_####_#
  6
Continuous
 62
     7
420
 16777215
 48
0.7
370
    13
100
AcDbBlockReference
  2
PKT
 10
552621.546
 20
335267.272
 30
0.0
  0
INSERT
  5
9CB
330
BFE
100
AcDbEntity
  8
RELJ_ELEM_####_####_#
  6
Continuous
 62
     7
420
 16777215
 48
0.7
370
    13
100
AcDbBlockReference
  2
PKT
 10
552621.506
 20
335266.867
 30
0.0
  0
INSERT
  5
9CD
330
BFE
100
AcDbEntity
  8
RELJ_ELEM_####_####_#
  6
Continuous
 62
     7
420
 16777215
 48
0.7
370
    13
100
AcDbBlockReference
  2
PKT
 10
552620.968
 20
335266.946
 30
0.0
  0
INSERT
  5
9CF
330
BFE
100
AcDbEntity
  8
RELJ_ELEM_####_####_#
  6
Continuous
 62
     7
420
 16777215
 48
0.7
370
    13
100
AcDbBlockReference
  2
PKT
 10
552621.755
 20
335269.633
 30
0.0
  0
INSERT
  5
9D1
330
BFE
100
AcDbEntity
  8
RELJ_ELEM_####_####_#
  6
Continuous
 62
     7
420
 16777215
 48
0.7
370
    13
100
AcDbBlockReference
  2
PKT
 10
552621.742
 20
335269.217
 30
0.0
  0
INSERT
  5
9D3
330
BFE
100
AcDbEntity
  8
RELJ_ELEM_####_####_#
  6
Continuous
 62
     7
420
 16777215
 48
0.7
370
    13
100
AcDbBlockReference
  2
PKT
 10
552613.369
 20
335258.287
 30
0.0
  0
INSERT
  5
9D5
330
BFE
100
AcDbEntity
  8
RELJ_ELEM_####_####_#
  6
Continuous
 62
     7
420
 16777215
 48
0.7
370
    13
100
AcDbBlockReference
  2
PKT
 10
552613.391
 20
335258.123
 30
0.0
  0
INSERT
  5
9D7
330
BFE
100
AcDbEntity
  8
RELJ_ELEM_####_####_#
  6
Continuous
 62
     7
420
 16777215
 48
0.7
370
    13
100
AcDbBlockReference
  2
PKT
 10
552614.091
 20
335258.421
 30
0.0
  0
INSERT
  5
9D9
330
BFE
100
AcDbEntity
  8
RELJ_ELEM_####_####_#
  6
Continuous
 62
     7
420
 16777215
 48
0.7
370
    13
100
AcDbBlockReference
  2
PKT
 10
552615.662
 20
335253.953
 30
0.0
  0
INSERT
  5
9DB
330
BFE
100
AcDbEntity
  8
RELJ_ELEM_####_####_#
  6
Continuous
 62
     7
420
 16777215
 48
0.7
370
    13
100
AcDbBlockReference
  2
PKT
 10
552615.497
 20
335253.875
 30
0.0
  0
INSERT
  5
9DD
330
BFE
100
AcDbEntity
  8
RELJ_ELEM_####_####_#
  6
Continuous
 62
     7
420
 16777215
 48
0.7
370
    13
100
AcDbBlockReference
  2
PKT
 10
552626.101
 20
335251.357
 30
0.0
  0
INSERT
  5
9DF
330
BFE
100
AcDbEntity
  8
RELJ_ELEM_####_####_#
  6
Continuous
 62
     7
420
 16777215
 48
0.7
370
    13
100
AcDbBlockReference
  2
PKT
 10
552626.033
 20
335251.222
 30
0.0
  0
INSERT
  5
9E1
330
BFE
100
AcDbEntity
  8
RELJ_ELEM_####_####_#
  6
Continuous
 62
     7
420
 16777215
 48
0.7
370
    13
100
AcDbBlockReference
  2
PKT
 10
552626.696
 20
335256.081
 30
0.0
  0
INSERT
  5
9E3
330
BFE
100
AcDbEntity
  8
RELJ_ELEM_####_####_#
  6
Continuous
 62
     7
420
 16777215
 48
0.7
370
    13
100
AcDbBlockReference
  2
PKT
 10
552634.682
 20
335253.933
 30
0.0
  0
INSERT
  5
9E5
330
BFE
100
AcDbEntity
  8
RELJ_ELEM_####_####_#
  6
Continuous
 62
     7
420
 16777215
 48
0.7
370
    13
100
AcDbBlockReference
  2
PKT
 10
552634.845
 20
335249.161
 30
0.0
  0
INSERT
  5
9E7
330
BFE
100
AcDbEntity
  8
RELJ_ELEM_####_####_#
  6
Continuous
 62
     7
420
 16777215
 48
0.7
370
    13
100
AcDbBlockReference
  2
PKT
 10
552635.015
 20
335248.959
 30
0.0
  0
INSERT
  5
9E9
330
BFE
100
AcDbEntity
  8
RELJ_ELEM_####_####_#
  6
Continuous
 62
     7
420
 16777215
 48
0.7
370
    13
100
AcDbBlockReference
  2
PKT
 10
552642.218
 20
335247.328
 30
0.0
  0
INSERT
  5
9EB
330
BFE
100
AcDbEntity
  8
RELJ_ELEM_####_####_#
  6
Continuous
 62
     7
420
 16777215
 48
0.7
370
    13
100
AcDbBlockReference
  2
PKT
 10
552642.207
 20
335247.211
 30
0.0
  0
INSERT
  5
9ED
330
BFE
100
AcDbEntity
  8
RELJ_ELEM_####_####_#
  6
Continuous
 62
     7
420
 16777215
 48
0.7
370
    13
100
AcDbBlockReference
  2
PKT
 10
552642.482
 20
335252.31
 30
0.0
  0
INSERT
  5
9EF
330
BFE
100
AcDbEntity
  8
RELJ_ELEM_####_####_#
  6
Continuous
 62
     7
420
 16777215
 48
0.7
370
    13
100
AcDbBlockReference
  2
PKT
 10
552649.887
 20
335250.782
 30
0.0
  0
INSERT
  5
9F1
330
BFE
100
AcDbEntity
  8
RELJ_ELEM_####_####_#
  6
Continuous
 62
     7
420
 16777215
 48
0.7
370
    13
100
AcDbBlockReference
  2
PKT
 10
552651.806
 20
335248.377
 30
0.0
  0
INSERT
  5
9F3
330
BFE
100
AcDbEntity
  8
RELJ_ELEM_####_####_#
  6
Continuous
 62
     7
420
 16777215
 48
0.7
370
    13
100
AcDbBlockReference
  2
PKT
 10
552654.976
 20
335247.523
 30
0.0
  0
INSERT
  5
9F5
330
BFE
100
AcDbEntity
  8
RELJ_ELEM_####_####_#
  6
Continuous
 62
     7
420
 16777215
 48
0.7
370
    13
100
AcDbBlockReference
  2
PKT
 10
552649.014
 20
335245.623
 30
0.0
  0
INSERT
  5
9F7
330
BFE
100
AcDbEntity
  8
RELJ_ELEM_####_####_#
  6
Continuous
 62
     7
420
 16777215
 48
0.7
370
    13
100
AcDbBlockReference
  2
PKT
 10
552648.976
 20
335245.484
 30
0.0
  0
INSERT
  5
9F9
330
BFE
100
AcDbEntity
  8
RELJ_ELEM_####_####_#
  6
Continuous
 62
     7
420
 16777215
 48
0.7
370
    13
100
AcDbBlockReference
  2
PKT
 10
552650.382
 20
335244.867
 30
0.0
  0
INSERT
  5
9FB
330
BFE
100
AcDbEntity
  8
RELJ_ELEM_####_####_#
  6
Continuous
 62
     7
420
 16777215
 48
0.7
370
    13
100
AcDbBlockReference
  2
PKT
 10
552651.145
 20
335242.99
 30
0.0
  0
INSERT
  5
9FD
330
BFE
100
AcDbEntity
  8
RELJ_ELEM_####_####_#
  6
Continuous
 62
     7
420
 16777215
 48
0.7
370
    13
100
AcDbBlockReference
  2
PKT
 10
552651.002
 20
335243.017
 30
0.0
  0
INSERT
  5
9FF
330
BFE
100
AcDbEntity
  8
RELJ_ELEM_####_####_#
  6
Continuous
 62
     7
420
 16777215
 48
0.7
370
    13
100
AcDbBlockReference
  2
PKT
 10
552650.589
 20
335235.745
 30
0.0
  0
INSERT
  5
A01
330
BFE
100
AcDbEntity
  8
RELJ_ELEM_####_####_#
  6
Continuous
 62
     7
420
 16777215
 48
0.7
370
    13
100
AcDbBlockReference
  2
PKT
 10
552650.424
 20
335235.723
 30
0.0
  0
INSERT
  5
A03
330
BFE
100
AcDbEntity
  8
RELJ_ELEM_####_####_#
  6
Continuous
 62
     7
420
 16777215
 48
0.7
370
    13
100
AcDbBlockReference
  2
PKT
 10
552654.06
 20
335235.659
 30
0.0
  0
INSERT
  5
A05
330
BFE
100
AcDbEntity
  8
RELJ_ELEM_####_####_#
  6
Continuous
 62
     7
420
 16777215
 48
0.7
370
    13
100
AcDbBlockReference
  2
PKT
 10
552649.665
 20
335224.364
 30
0.0
  0
INSERT
  5
A07
330
BFE
100
AcDbEntity
  8
RELJ_ELEM_####_####_#
  6
Continuous
 62
     7
420
 16777215
 48
0.7
370
    13
100
AcDbBlockReference
  2
PKT
 10
552649.518
 20
335224.377
 30
0.0
  0
INSERT
  5
A09
330
BFE
100
AcDbEntity
  8
RELJ_ELEM_####_####_#
  6
Continuous
 62
     7
420
 16777215
 48
0.7
370
    13
100
AcDbBlockReference
  2
PKT
 10
552649.069
 20
335221.395
 30
0.0
  0
INSERT
  5
A0B
330
BFE
100
AcDbEntity
  8
RELJ_ELEM_####_####_#
  6
Continuous
 62
     7
420
 16777215
 48
0.7
370
    13
100
AcDbBlockReference
  2
PKT
 10
552648.706
 20
335220.495
 30
0.0
  0
INSERT
  5
A0D
330
BFE
100
AcDbEntity
  8
RELJ_ELEM_####_####_#
  6
Continuous
 62
     7
420
 16777215
 48
0.7
370
    13
100
AcDbBlockReference
  2
PKT
 10
552648.617
 20
335220.657
 30
0.0
  0
INSERT
  5
A0F
330
BFE
100
AcDbEntity
  8
RELJ_ELEM_####_####_#
  6
Continuous
 62
     7
420
 16777215
 48
0.7
370
    13
100
AcDbBlockReference
  2
PKT
 10
552648.086
 20
335219.665
 30
0.0
  0
INSERT
  5
A11
330
BFE
100
AcDbEntity
  8
RELJ_ELEM_####_####_#
  6
Continuous
 62
     7
420
 16777215
 48
0.7
370
    13
100
AcDbBlockReference
  2
PKT
 10
552647.993
 20
335219.724
 30
0.0
  0
INSERT
  5
A13
330
BFE
100
AcDbEntity
  8
RELJ_ELEM_####_####_#
  6
Continuous
 62
     7
420
 16777215
 48
0.7
370
    13
100
AcDbBlockReference
  2
PKT
 10
552647.313
 20
335219.05
 30
0.0
  0
INSERT
  5
A15
330
BFE
100
AcDbEntity
  8
RELJ_ELEM_####_####_#
  6
Continuous
 62
     7
420
 16777215
 48
0.7
370
    13
100
AcDbBlockReference
  2
PKT
 10
552646.369
 20
335218.781
 30
0.0
  0
INSERT
  5
A17
330
BFE
100
AcDbEntity
  8
RELJ_ELEM_####_####_#
  6
Continuous
 62
     7
420
 16777215
 48
0.7
370
    13
100
AcDbBlockReference
  2
PKT
 10
552646.377
 20
335218.85
 30
0.0
  0
INSERT
  5
A19
330
BFE
100
AcDbEntity
  8
RELJ_ELEM_####_####_#
  6
Continuous
 62
     7
420
 16777215
 48
0.7
370
    13
100
AcDbBlockReference
  2
PKT
 10
552645.385
 20
335218.918
 30
0.0
  0
INSERT
  5
A1B
330
BFE
100
AcDbEntity
  8
RELJ_ELEM_####_####_#
  6
Continuous
 62
     7
420
 16777215
 48
0.7
370
    13
100
AcDbBlockReference
  2
PKT
 10
552645.451
 20
335219.033
 30
0.0
  0
INSERT
  5
A1D
330
BFE
100
AcDbEntity
  8
RELJ_ELEM_####_####_#
  6
Continuous
 62
     7
420
 16777215
 48
0.7
370
    13
100
AcDbBlockReference
  2
PKT
 10
552646.952
 20
335221.734
 30
0.0
  0
INSERT
  5
A1F
330
BFE
100
AcDbEntity
  8
RELJ_ELEM_####_####_#
  6
Continuous
 62
     7
420
 16777215
 48
0.7
370
    13
100
AcDbBlockReference
  2
PKT
 10
552644.806
 20
335223.862
 30
0.0
  0
INSERT
  5
A21
330
BFE
100
AcDbEntity
  8
RELJ_ELEM_####_####_#
  6
Continuous
 62
     7
420
 16777215
 48
0.7
370
    13
100
AcDbBlockReference
  2
PKT
 10
552638.418
 20
335227.316
 30
0.0
  0
INSERT
  5
A23
330
BFE
100
AcDbEntity
  8
RELJ_ELEM_####_####_#
  6
Continuous
 62
     7
420
 16777215
 48
0.7
370
    13
100
AcDbBlockReference
  2
PKT
 10
552636.59
 20
335224.622
 30
0.0
  0
INSERT
  5
A25
330
BFE
100
AcDbEntity
  8
RELJ_ELEM_####_####_#
  6
Continuous
 62
     7
420
 16777215
 48
0.7
370
    13
100
AcDbBlockReference
  2
PKT
 10
552636.578
 20
335224.71
 30
0.0
  0
INSERT
  5
A27
330
BFE
100
AcDbEntity
  8
RELJ_ELEM_####_####_#
  6
Continuous
 62
     7
420
 16777215
 48
0.7
370
    13
100
AcDbBlockReference
  2
PKT
 10
552636.672
 20
335224.728
 30
0.0
  0
INSERT
  5
A29
330
BFE
100
AcDbEntity
  8
RELJ_ELEM_####_####_#
  6
Continuous
 62
     7
420
 16777215
 48
0.7
370
    13
100
AcDbBlockReference
  2
PKT
 10
552635.733
 20
335222.616
 30
0.0
  0
INSERT
  5
A2B
330
BFE
100
AcDbEntity
  8
RELJ_ELEM_####_####_#
  6
Continuous
 62
     7
420
 16777215
 48
0.7
370
    13
100
AcDbBlockReference
  2
PKT
 10
552636.367
 20
335228.744
 30
0.0
  0
INSERT
  5
A2D
330
BFE
100
AcDbEntity
  8
RELJ_ELEM_####_####_#
  6
Continuous
 62
     7
420
 16777215
 48
0.7
370
    13
100
AcDbBlockReference
  2
PKT
 10
552634.335
 20
335230.913
 30
0.0
  0
INSERT
  5
A2F
330
BFE
100
AcDbEntity
  8
RELJ_ELEM_####_####_#
  6
Continuous
 62
     7
420
 16777215
 48
0.7
370
    13
100
AcDbBlockReference
  2
PKT
 10
552632.427
 20
335227.774
 30
0.0
  0
INSERT
  5
A31
330
BFE
100
AcDbEntity
  8
RELJ_ELEM_####_####_#
  6
Continuous
 62
     7
420
 16777215
 48
0.7
370
    13
100
AcDbBlockReference
  2
PKT
 10
552631.96
 20
335227.793
 30
0.0
  0
INSERT
  5
A33
330
BFE
100
AcDbEntity
  8
RELJ_ELEM_####_####_#
  6
Continuous
 62
     7
420
 16777215
 48
0.7
370
    13
100
AcDbBlockReference
  2
PKT
 10
552631.886
 20
335227.66
 30
0.0
  0
INSERT
  5
A35
330
BFE
100
AcDbEntity
  8
RELJ_ELEM_####_####_#
  6
Continuous
 62
     7
420
 16777215
 48
0.7
370
    13
100
AcDbBlockReference
  2
PKT
 10
552631.091
 20
335228.291
 30
0.0
  0
INSERT
  5
A37
330
BFE
100
AcDbEntity
  8
RELJ_ELEM_####_####_#
  6
Continuous
 62
     7
420
 16777215
 48
0.7
370
    13
100
AcDbBlockReference
  2
PKT
 10
552631.116
 20
335228.303
 30
0.0
  0
INSERT
  5
A39
330
BFE
100
AcDbEntity
  8
RELJ_ELEM_####_####_#
  6
Continuous
 62
     7
420
 16777215
 48
0.7
370
    13
100
AcDbBlockReference
  2
PKT
 10
552631.186
 20
335232.063
 30
0.0
  0
INSERT
  5
A3B
330
BFE
100
AcDbEntity
  8
RELJ_ELEM_####_####_#
  6
Continuous
 62
     7
420
 16777215
 48
0.7
370
    13
100
AcDbBlockReference
  2
PKT
 10
552630.252
 20
335232.684
 30
0.0
  0
INSERT
  5
A3D
330
BFE
100
AcDbEntity
  8
RELJ_ELEM_####_####_#
  6
Continuous
 62
     7
420
 16777215
 48
0.7
370
    13
100
AcDbBlockReference
  2
PKT
 10
552629.418
 20
335229.437
 30
0.0
  0
INSERT
  5
A3F
330
BFE
100
AcDbEntity
  8
RELJ_ELEM_####_####_#
  6
Continuous
 62
     7
420
 16777215
 48
0.7
370
    13
100
AcDbBlockReference
  2
PKT
 10
552628.618
 20
335230.034
 30
0.0
  0
INSERT
  5
A41
330
BFE
100
AcDbEntity
  8
RELJ_ELEM_####_####_#
  6
Continuous
 62
     7
420
 16777215
 48
0.7
370
    13
100
AcDbBlockReference
  2
PKT
 10
552628.533
 20
335229.948
 30
0.0
  0
INSERT
  5
A43
330
BFE
100
AcDbEntity
  8
RELJ_ELEM_####_####_#
  6
Continuous
 62
     7
420
 16777215
 48
0.7
370
    13
100
AcDbBlockReference
  2
PKT
 10
552625.593
 20
335229.935
 30
0.0
  0
INSERT
  5
A45
330
BFE
100
AcDbEntity
  8
RELJ_ELEM_####_####_#
  6
Continuous
 62
     7
420
 16777215
 48
0.7
370
    13
100
AcDbBlockReference
  2
PKT
 10
552621.974
 20
335234.895
 30
0.0
  0
INSERT
  5
A47
330
BFE
100
AcDbEntity
  8
RELJ_ELEM_####_####_#
  6
Continuous
 62
     7
420
 16777215
 48
0.7
370
    13
100
AcDbBlockReference
  2
PKT
 10
552622.045
 20
335234.979
 30
0.0
  0
INSERT
  5
A49
330
BFE
100
AcDbEntity
  8
RELJ_ELEM_####_####_#
  6
Continuous
 62
     7
420
 16777215
 48
0.7
370
    13
100
AcDbBlockReference
  2
PKT
 10
552623.992
 20
335237.421
 30
0.0
  0
INSERT
  5
A4B
330
BFE
100
AcDbEntity
  8
RELJ_ELEM_####_####_#
  6
Continuous
 62
     7
420
 16777215
 48
0.7
370
    13
100
AcDbBlockReference
  2
PKT
 10
552625.693
 20
335239.181
 30
0.0
  0
INSERT
  5
A4D
330
BFE
100
AcDbEntity
  8
RELJ_ELEM_####_####_#
  6
Continuous
 62
     7
420
 16777215
 48
0.7
370
    13
100
AcDbBlockReference
  2
PKT
 10
552621.639
 20
335249.313
 30
0.0
  0
INSERT
  5
A4F
330
BFE
100
AcDbEntity
  8
RELJ_ELEM_####_####_#
  6
Continuous
 62
     7
420
 16777215
 48
0.7
370
    13
100
AcDbBlockReference
  2
PKT
 10
552625.144
 20
335247.84
 30
0.0
  0
INSERT
  5
A51
330
BFE
100
AcDbEntity
  8
RELJ_ELEM_####_####_#
  6
Continuous
 62
     7
420
 16777215
 48
0.7
370
    13
100
AcDbBlockReference
  2
PKT
 10
552628.492
 20
335246.873
 30
0.0
  0
INSERT
  5
A53
330
BFE
100
AcDbEntity
  8
RELJ_ELEM_####_####_#
  6
Continuous
 62
     7
420
 16777215
 48
0.7
370
    13
100
AcDbBlockReference
  2
PKT
 10
552631.039
 20
335246.184
 30
0.0
  0
INSERT
  5
A55
330
BFE
100
AcDbEntity
  8
RELJ_ELEM_####_####_#
  6
Continuous
 62
     7
420
 16777215
 48
0.7
370
    13
100
AcDbBlockReference
  2
PKT
 10
552635.42
 20
335244.594
 30
0.0
  0
INSERT
  5
A57
330
BFE
100
AcDbEntity
  8
RELJ_ELEM_####_####_#
  6
Continuous
 62
     7
420
 16777215
 48
0.7
370
    13
100
AcDbBlockReference
  2
PKT
 10
552641.88
 20
335243.194
 30
0.0
  0
INSERT
  5
A59
330
BFE
100
AcDbEntity
  8
RELJ_ELEM_####_####_#
  6
Continuous
 62
     7
420
 16777215
 48
0.7
370
    13
100
AcDbBlockReference
  2
PKT
 10
552646.415
 20
335241.387
 30
0.0
  0
INSERT
  5
A5B
330
BFE
100
AcDbEntity
  8
RELJ_ELEM_####_####_#
  6
Continuous
 62
     7
420
 16777215
 48
0.7
370
    13
100
AcDbBlockReference
  2
PKT
 10
552646.142
 20
335233.075
 30
0.0
  0
INSERT
  5
A5D
330
BFE
100
AcDbEntity
  8
RELJ_ELEM_####_####_#
  6
Continuous
 62
     7
420
 16777215
 48
0.7
370
    13
100
AcDbBlockReference
  2
PKT
 10
552641.078
 20
335235.667
 30
0.0
  0
INSERT
  5
A5F
330
BFE
100
AcDbEntity
  8
RELJ_ELEM_####_####_#
  6
Continuous
 62
     7
420
 16777215
 48
0.7
370
    13
100
AcDbBlockReference
  2
PKT
 10
552634.497
 20
335235.69
 30
0.0
  0
INSERT
  5
A61
330
BFE
100
AcDbEntity
  8
RELJ_ELEM_####_####_#
  6
Continuous
 62
     7
420
 16777215
 48
0.7
370
    13
100
AcDbBlockReference
  2
PKT
 10
552631.923
 20
335239.501
 30
0.0
  0
INSERT
  5
A63
330
BFE
100
AcDbEntity
  8
RELJ_ELEM_####_####_#
  6
Continuous
 62
     7
420
 16777215
 48
0.7
370
    13
100
AcDbBlockReference
  2
PKT
 10
552622.589
 20
335241.758
 30
0.0
  0
INSERT
  5
A65
330
BFE
100
AcDbEntity
  8
RELJ_ELEM_####_####_#
  6
Continuous
 62
     7
420
 16777215
 48
0.7
370
    13
100
AcDbBlockReference
  2
PKT
 10
552621.051
 20
335242.781
 30
0.0
  0
INSERT
  5
A67
330
BFE
100
AcDbEntity
  8
RELJ_ELEM_####_####_#
  6
Continuous
 62
     7
420
 16777215
 48
0.7
370
    13
100
AcDbBlockReference
  2
PKT
 10
552619.293
 20
335243.862
 30
0.0
  0
INSERT
  5
A69
330
BFE
100
AcDbEntity
  8
RELJ_ELEM_####_####_#
  6
Continuous
 62
     7
420
 16777215
 48
0.7
370
    13
100
AcDbBlockReference
  2
PKT
 10
552617.392
 20
335245.04
 30
0.0
  0
INSERT
  5
A6B
330
BFE
100
AcDbEntity
  8
RELJ_ELEM_####_####_#
  6
Continuous
 62
     7
420
 16777215
 48
0.7
370
    13
100
AcDbBlockReference
  2
PKT
 10
552615.307
 20
335246.65
 30
0.0
  0
INSERT
  5
A6D
330
BFE
100
AcDbEntity
  8
RELJ_ELEM_####_####_#
  6
Continuous
 62
     7
420
 16777215
 48
0.7
370
    13
100
AcDbBlockReference
  2
PKT
 10
552613.305
 20
335248.198
 30
0.0
  0
INSERT
  5
A6F
330
BFE
100
AcDbEntity
  8
RELJ_ELEM_####_####_#
  6
Continuous
 62
     7
420
 16777215
 48
0.7
370
    13
100
AcDbBlockReference
  2
PKT
 10
552611.221
 20
335249.945
 30
0.0
  0
INSERT
  5
A71
330
BFE
100
AcDbEntity
  8
RELJ_ELEM_####_####_#
  6
Continuous
 62
     7
420
 16777215
 48
0.7
370
    13
100
AcDbBlockReference
  2
PKT
 10
552624.39
 20
335244.395
 30
0.0
  0
INSERT
  5
A73
330
BFE
100
AcDbEntity
  8
RELJ_ELEM_####_####_#
  6
Continuous
 62
     7
420
 16777215
 48
0.7
370
    13
100
AcDbBlockReference
  2
PKT
 10
552610.091
 20
335253.452
 30
0.0
  0
INSERT
  5
A75
330
BFE
100
AcDbEntity
  8
RELJ_ELEM_####_####_#
  6
Continuous
 62
     7
420
 16777215
 48
0.7
370
    13
100
AcDbBlockReference
  2
PKT
 10
552646.338
 20
335267.057
 30
0.0
  0
INSERT
  5
A77
330
BFE
100
AcDbEntity
  8
RELJ_ELEM_####_####_#
  6
Continuous
 62
     7
420
 16777215
 48
0.7
370
    13
100
AcDbBlockReference
  2
PKT
 10
552646.028
 20
335267.477
 30
0.0
  0
INSERT
  5
A79
330
BFE
100
AcDbEntity
  8
RELJ_ELEM_####_####_#
  6
Continuous
 62
     7
420
 16777215
 48
0.7
370
    13
100
AcDbBlockReference
  2
PKT
 10
552630.847
 20
335273.362
 30
0.0
  0
INSERT
  5
A7B
330
BFE
100
AcDbEntity
  8
RELJ_ELEM_####_####_#
  6
Continuous
 62
     7
420
 16777215
 48
0.7
370
    13
100
AcDbBlockReference
  2
PKT
 10
552625.536
 20
335271.199
 30
0.0
  0
INSERT
  5
A7D
330
BFE
100
AcDbEntity
  8
RELJ_ELEM_####_####_#
  6
Continuous
 62
     7
420
 16777215
 48
0.7
370
    13
100
AcDbBlockReference
  2
PKT
 10
552628.318
 20
335273.86
 30
0.0
  0
INSERT
  5
A7F
330
BFE
100
AcDbEntity
  8
RELJ_ELEM_####_####_#
  6
Continuous
 62
     7
420
 16777215
 48
0.7
370
    13
100
AcDbBlockReference
  2
PKT
 10
552625.646
 20
335274.142
 30
0.0
  0
INSERT
  5
A81
330
BFE
100
AcDbEntity
  8
RELJ_ELEM_####_####_#
  6
Continuous
 62
     7
420
 16777215
 48
0.7
370
    13
100
AcDbBlockReference
  2
PKT
 10
552621.506
 20
335272.816
 30
0.0
  0
INSERT
  5
A83
330
BFE
100
AcDbEntity
  8
RELJ_ELEM_####_####_#
  6
Continuous
 62
     7
420
 16777215
 48
0.7
370
    13
100
AcDbBlockReference
  2
PKT
 10
552621.835
 20
335274.161
 30
0.0
  0
INSERT
  5
A85
330
BFE
100
AcDbEntity
  8
RELJ_ELEM_####_####_#
  6
Continuous
 62
     7
420
 16777215
 48
0.7
370
    13
100
AcDbBlockReference
  2
PKT
 10
552620.408
 20
335272.122
 30
0.0
  0
INSERT
  5
A87
330
BFE
100
AcDbEntity
  8
RELJ_ELEM_####_####_#
  6
Continuous
 62
     7
420
 16777215
 48
0.7
370
    13
100
AcDbBlockReference
  2
PKT
 10
552620.575
 20
335274.581
 30
0.0
  0
INSERT
  5
A89
330
BFE
100
AcDbEntity
  8
RELJ_ELEM_####_####_#
  6
Continuous
 62
     7
420
 16777215
 48
0.7
370
    13
100
AcDbBlockReference
  2
PKT
 10
552619.246
 20
335274.694
 30
0.0
  0
INSERT
  5
A8B
330
BFE
100
AcDbEntity
  8
RELJ_ELEM_####_####_#
  6
Continuous
 62
     7
420
 16777215
 48
0.7
370
    13
100
AcDbBlockReference
  2
PKT
 10
552615.404
 20
335275.05
 30
0.0
  0
INSERT
  5
A8D
330
BFE
100
AcDbEntity
  8
RELJ_ELEM_####_####_#
  6
Continuous
 62
     7
420
 16777215
 48
0.7
370
    13
100
AcDbBlockReference
  2
PKT
 10
552614.614
 20
335274.526
 30
0.0
  0
INSERT
  5
A8F
330
BFE
100
AcDbEntity
  8
RELJ_ELEM_####_####_#
  6
Continuous
 62
     7
420
 16777215
 48
0.7
370
    13
100
AcDbBlockReference
  2
PKT
 10
552614.9
 20
335273.422
 30
0.0
  0
INSERT
  5
A91
330
BFE
100
AcDbEntity
  8
RELJ_ELEM_####_####_#
  6
Continuous
 62
     7
420
 16777215
 48
0.7
370
    13
100
AcDbBlockReference
  2
PKT
 10
552610.661
 20
335270.175
 30
0.0
  0
INSERT
  5
A93
330
BFE
100
AcDbEntity
  8
RELJ_ELEM_####_####_#
  6
Continuous
 62
     7
420
 16777215
 48
0.7
370
    13
100
AcDbBlockReference
  2
PKT
 10
552611.86
 20
335261.774
 30
0.0
  0
INSERT
  5
A95
330
BFE
100
AcDbEntity
  8
RELJ_ELEM_####_####_#
  6
Continuous
 62
     7
420
 16777215
 48
0.7
370
    13
100
AcDbBlockReference
  2
PKT
 10
552611.826
 20
335261.525
 30
0.0
  0
INSERT
  5
A97
330
BFE
100
AcDbEntity
  8
RELJ_ELEM_####_####_#
  6
Continuous
 62
     7
420
 16777215
 48
0.7
370
    13
100
AcDbBlockReference
  2
PKT
 10
552614.854
 20
335244.323
 30
0.0
  0
INSERT
  5
A99
330
BFE
100
AcDbEntity
  8
RELJ_ELEM_####_####_#
  6
Continuous
 62
     7
420
 16777215
 48
0.7
370
    13
100
AcDbBlockReference
  2
PKT
 10
552612.725
 20
335241.88
 30
0.0
  0
INSERT
  5
A9B
330
BFE
100
AcDbEntity
  8
RELJ_ELEM_####_####_#
  6
Continuous
 62
     7
420
 16777215
 48
0.7
370
    13
100
AcDbBlockReference
  2
PKT
 10
552612.809
 20
335241.988
 30
0.0
  0
INSERT
  5
A9D
330
BFE
100
AcDbEntity
  8
RELJ_ELEM_####_####_#
  6
Continuous
 62
     7
420
 16777215
 48
0.7
370
    13
100
AcDbBlockReference
  2
PKT
 10
552600.901
 20
335250.93
 30
0.0
  0
INSERT
  5
A9F
330
BFE
100
AcDbEntity
  8
RELJ_ELEM_####_####_#
  6
Continuous
 62
     7
420
 16777215
 48
0.7
370
    13
100
AcDbBlockReference
  2
PKT
 10
552600.815
 20
335250.818
 30
0.0
  0
INSERT
  5
AA1
330
BFE
100
AcDbEntity
  8
RELJ_ELEM_####_####_#
  6
Continuous
 62
     7
420
 16777215
 48
0.7
370
    13
100
AcDbBlockReference
  2
PKT
 10
552600.709
 20
335250.111
 30
0.0
  0
INSERT
  5
AA3
330
BFE
100
AcDbEntity
  8
RELJ_ELEM_####_####_#
  6
Continuous
 62
     7
420
 16777215
 48
0.7
370
    13
100
AcDbBlockReference
  2
PKT
 10
552600.179
 20
335251.576
 30
0.0
  0
INSERT
  5
AA5
330
BFE
100
AcDbEntity
  8
RELJ_ELEM_####_####_#
  6
Continuous
 62
     7
420
 16777215
 48
0.7
370
    13
100
AcDbBlockReference
  2
PKT
 10
552599.712
 20
335252.412
 30
0.0
  0
INSERT
  5
AA7
330
BFE
100
AcDbEntity
  8
RELJ_ELEM_####_####_#
  6
Continuous
 62
     7
420
 16777215
 48
0.7
370
    13
100
AcDbBlockReference
  2
PKT
 10
552599.851
 20
335252.521
 30
0.0
  0
INSERT
  5
AA9
330
BFE
100
AcDbEntity
  8
RELJ_ELEM_####_####_#
  6
Continuous
 62
     7
420
 16777215
 48
0.7
370
    13
100
AcDbBlockReference
  2
PKT
 10
552599.591
 20
335253.442
 30
0.0
  0
INSERT
  5
AAB
330
BFE
100
AcDbEntity
  8
RELJ_ELEM_####_####_#
  6
Continuous
 62
     7
420
 16777215
 48
0.7
370
    13
100
AcDbBlockReference
  2
PKT
 10
552599.918
 20
335254.355
 30
0.0
  0
INSERT
  5
AAD
330
BFE
100
AcDbEntity
  8
RELJ_ELEM_####_####_#
  6
Continuous
 62
     7
420
 16777215
 48
0.7
370
    13
100
AcDbBlockReference
  2
PKT
 10
552600.549
 20
335255.152
 30
0.0
  0
INSERT
  5
AAF
330
BFE
100
AcDbEntity
  8
RELJ_ELEM_####_####_#
  6
Continuous
 62
     7
420
 16777215
 48
0.7
370
    13
100
AcDbBlockReference
  2
PKT
 10
552600.642
 20
335255.031
 30
0.0
  0
INSERT
  5
AB1
330
BFE
100
AcDbEntity
  8
RELJ_ELEM_####_####_#
  6
Continuous
 62
     7
420
 16777215
 48
0.7
370
    13
100
AcDbBlockReference
  2
PKT
 10
552603.044
 20
335253.202
 30
0.0
  0
INSERT
  5
AB3
330
BFE
100
AcDbEntity
  8
RELJ_ELEM_####_####_#
  6
Continuous
 62
     7
420
 16777215
 48
0.7
370
    13
100
AcDbBlockReference
  2
PKT
 10
552601.63
 20
335255.651
 30
0.0
  0
INSERT
  5
AB5
330
BFE
100
AcDbEntity
  8
RELJ_ELEM_####_####_#
  6
Continuous
 62
     7
420
 16777215
 48
0.7
370
    13
100
AcDbBlockReference
  2
PKT
 10
552601.523
 20
335255.823
 30
0.0
  0
INSERT
  5
AB7
330
BFE
100
AcDbEntity
  8
RELJ_ELEM_####_####_#
  6
Continuous
 62
     7
420
 16777215
 48
0.7
370
    13
100
AcDbBlockReference
  2
PKT
 10
552596.766
 20
335258.427
 30
0.0
  0
INSERT
  5
AB9
330
BFE
100
AcDbEntity
  8
RELJ_ELEM_####_####_#
  6
Continuous
 62
     7
420
 16777215
 48
0.7
370
    13
100
AcDbBlockReference
  2
PKT
 10
552596.704
 20
335258.58
 30
0.0
  0
INSERT
  5
ABB
330
BFE
100
AcDbEntity
  8
RELJ_ELEM_####_####_#
  6
Continuous
 62
     7
420
 16777215
 48
0.7
370
    13
100
AcDbBlockReference
  2
PKT
 10
552596.105
 20
335258.479
 30
0.0
  0
INSERT
  5
ABD
330
BFE
100
AcDbEntity
  8
RELJ_ELEM_####_####_#
  6
Continuous
 62
     7
420
 16777215
 48
0.7
370
    13
100
AcDbBlockReference
  2
PKT
 10
552595.735
 20
335258.402
 30
0.0
  0
INSERT
  5
ABF
330
BFE
100
AcDbEntity
  8
RELJ_ELEM_####_####_#
  6
Continuous
 62
     7
420
 16777215
 48
0.7
370
    13
100
AcDbBlockReference
  2
PKT
 10
552595.745
 20
335258.267
 30
0.0
  0
INSERT
  5
AC1
330
BFE
100
AcDbEntity
  8
RELJ_ELEM_####_####_#
  6
Continuous
 62
     7
420
 16777215
 48
0.7
370
    13
100
AcDbBlockReference
  2
PKT
 10
552593.771
 20
335258.015
 30
0.0
  0
INSERT
  5
AC3
330
BFE
100
AcDbEntity
  8
RELJ_ELEM_####_####_#
  6
Continuous
 62
     7
420
 16777215
 48
0.7
370
    13
100
AcDbBlockReference
  2
PKT
 10
552591.99
 20
335258.138
 30
0.0
  0
INSERT
  5
AC5
330
BFE
100
AcDbEntity
  8
RELJ_ELEM_####_####_#
  6
Continuous
 62
     7
420
 16777215
 48
0.7
370
    13
100
AcDbBlockReference
  2
PKT
 10
552591.525
 20
335258.309
 30
0.0
  0
INSERT
  5
AC7
330
BFE
100
AcDbEntity
  8
RELJ_ELEM_####_####_#
  6
Continuous
 62
     7
420
 16777215
 48
0.7
370
    13
100
AcDbBlockReference
  2
PKT
 10
552591.548
 20
335258.393
 30
0.0
  0
INSERT
  5
AC9
330
BFE
100
AcDbEntity
  8
RELJ_ELEM_####_####_#
  6
Continuous
 62
     7
420
 16777215
 48
0.7
370
    13
100
AcDbBlockReference
  2
PKT
 10
552590.762
 20
335258.859
 30
0.0
  0
INSERT
  5
ACB
330
BFE
100
AcDbEntity
  8
RELJ_ELEM_####_####_#
  6
Continuous
 62
     7
420
 16777215
 48
0.7
370
    13
100
AcDbBlockReference
  2
PKT
 10
552590.657
 20
335258.767
 30
0.0
  0
INSERT
  5
ACD
330
BFE
100
AcDbEntity
  8
RELJ_ELEM_####_####_#
  6
Continuous
 62
     7
420
 16777215
 48
0.7
370
    13
100
AcDbBlockReference
  2
PKT
 10
552580.586
 20
335267.034
 30
0.0
  0
INSERT
  5
ACF
330
BFE
100
AcDbEntity
  8
RELJ_ELEM_####_####_#
  6
Continuous
 62
     7
420
 16777215
 48
0.7
370
    13
100
AcDbBlockReference
  2
PKT
 10
552580.696
 20
335267.158
 30
0.0
  0
INSERT
  5
AD1
330
BFE
100
AcDbEntity
  8
RELJ_ELEM_####_####_#
  6
Continuous
 62
     7
420
 16777215
 48
0.7
370
    13
100
AcDbBlockReference
  2
PKT
 10
552582.722
 20
335269.452
 30
0.0
  0
INSERT
  5
AD3
330
BFE
100
AcDbEntity
  8
RELJ_ELEM_####_####_#
  6
Continuous
 62
     7
420
 16777215
 48
0.7
370
    13
100
AcDbBlockReference
  2
PKT
 10
552579.953
 20
335268.892
 30
0.0
  0
INSERT
  5
AD5
330
BFE
100
AcDbEntity
  8
RELJ_ELEM_####_####_#
  6
Continuous
 62
     7
420
 16777215
 48
0.7
370
    13
100
AcDbBlockReference
  2
PKT
 10
552580.008
 20
335267.909
 30
0.0
  0
INSERT
  5
AD7
330
BFE
100
AcDbEntity
  8
RELJ_ELEM_####_####_#
  6
Continuous
 62
     7
420
 16777215
 48
0.7
370
    13
100
AcDbBlockReference
  2
PKT
 10
552580.155
 20
335267.956
 30
0.0
  0
INSERT
  5
AD9
330
BFE
100
AcDbEntity
  8
RELJ_ELEM_####_####_#
  6
Continuous
 62
     7
420
 16777215
 48
0.7
370
    13
100
AcDbBlockReference
  2
PKT
 10
552580.227
 20
335269.835
 30
0.0
  0
INSERT
  5
ADB
330
BFE
100
AcDbEntity
  8
RELJ_ELEM_####_####_#
  6
Continuous
 62
     7
420
 16777215
 48
0.7
370
    13
100
AcDbBlockReference
  2
PKT
 10
552580.778
 20
335270.621
 30
0.0
  0
INSERT
  5
ADD
330
BFE
100
AcDbEntity
  8
RELJ_ELEM_####_####_#
  6
Continuous
 62
     7
420
 16777215
 48
0.7
370
    13
100
AcDbBlockReference
  2
PKT
 10
552580.885
 20
335270.585
 30
0.0
  0
INSERT
  5
ADF
330
BFE
100
AcDbEntity
  8
RELJ_ELEM_####_####_#
  6
Continuous
 62
     7
420
 16777215
 48
0.7
370
    13
100
AcDbBlockReference
  2
PKT
 10
552581.107
 20
335270.806
 30
0.0
  0
INSERT
  5
AE1
330
BFE
100
AcDbEntity
  8
RELJ_ELEM_####_####_#
  6
Continuous
 62
     7
420
 16777215
 48
0.7
370
    13
100
AcDbBlockReference
  2
PKT
 10
552582.512
 20
335272.645
 30
0.0
  0
INSERT
  5
AE3
330
BFE
100
AcDbEntity
  8
RELJ_ELEM_####_####_#
  6
Continuous
 62
     7
420
 16777215
 48
0.7
370
    13
100
AcDbBlockReference
  2
PKT
 10
552582.625
 20
335272.549
 30
0.0
  0
INSERT
  5
AE5
330
BFE
100
AcDbEntity
  8
RELJ_ELEM_####_####_#
  6
Continuous
 62
     7
420
 16777215
 48
0.7
370
    13
100
AcDbBlockReference
  2
PKT
 10
552587.216
 20
335267.288
 30
0.0
  0
INSERT
  5
AE7
330
BFE
100
AcDbEntity
  8
RELJ_ELEM_####_####_#
  6
Continuous
 62
     7
420
 16777215
 48
0.7
370
    13
100
AcDbBlockReference
  2
PKT
 10
552586.506
 20
335274.65
 30
0.0
  0
INSERT
  5
AE9
330
BFE
100
AcDbEntity
  8
RELJ_ELEM_####_####_#
  6
Continuous
 62
     7
420
 16777215
 48
0.7
370
    13
100
AcDbBlockReference
  2
PKT
 10
552587.904
 20
335276.007
 30
0.0
  0
INSERT
  5
AEB
330
BFE
100
AcDbEntity
  8
RELJ_ELEM_####_####_#
  6
Continuous
 62
     7
420
 16777215
 48
0.7
370
    13
100
AcDbBlockReference
  2
PKT
 10
552593.754
 20
335271.224
 30
0.0
  0
INSERT
  5
AED
330
BFE
100
AcDbEntity
  8
RELJ_ELEM_####_####_#
  6
Continuous
 62
     7
420
 16777215
 48
0.7
370
    13
100
AcDbBlockReference
  2
PKT
 10
552597.026
 20
335276.639
 30
0.0
  0
INSERT
  5
AEF
330
BFE
100
AcDbEntity
  8
RELJ_ELEM_####_####_#
  6
Continuous
 62
     7
420
 16777215
 48
0.7
370
    13
100
AcDbBlockReference
  2
PKT
 10
552592.508
 20
335283.67
 30
0.0
  0
INSERT
  5
AF1
330
BFE
100
AcDbEntity
  8
RELJ_ELEM_####_####_#
  6
Continuous
 62
     7
420
 16777215
 48
0.7
370
    13
100
AcDbBlockReference
  2
PKT
 10
552592.391
 20
335283.806
 30
0.0
  0
INSERT
  5
AF3
330
BFE
100
AcDbEntity
  8
RELJ_ELEM_####_####_#
  6
Continuous
 62
     7
420
 16777215
 48
0.7
370
    13
100
AcDbBlockReference
  2
PKT
 10
552602.536
 20
335295.016
 30
0.0
  0
INSERT
  5
AF5
330
BFE
100
AcDbEntity
  8
RELJ_ELEM_####_####_#
  6
Continuous
 62
     7
420
 16777215
 48
0.7
370
    13
100
AcDbBlockReference
  2
PKT
 10
552602.602
 20
335294.971
 30
0.0
  0
INSERT
  5
AF7
330
BFE
100
AcDbEntity
  8
RELJ_ELEM_####_####_#
  6
Continuous
 62
     7
420
 16777215
 48
0.7
370
    13
100
AcDbBlockReference
  2
PKT
 10
552603.363
 20
335295.667
 30
0.0
  0
INSERT
  5
AF9
330
BFE
100
AcDbEntity
  8
RELJ_ELEM_####_####_#
  6
Continuous
 62
     7
420
 16777215
 48
0.7
370
    13
100
AcDbBlockReference
  2
PKT
 10
552604.322
 20
335296.095
 30
0.0
  0
INSERT
  5
AFB
330
BFE
100
AcDbEntity
  8
RELJ_ELEM_####_####_#
  6
Continuous
 62
     7
420
 16777215
 48
0.7
370
    13
100
AcDbBlockReference
  2
PKT
 10
552605.36
 20
335296.17
 30
0.0
  0
INSERT
  5
AFD
330
BFE
100
AcDbEntity
  8
RELJ_ELEM_####_####_#
  6
Continuous
 62
     7
420
 16777215
 48
0.7
370
    13
100
AcDbBlockReference
  2
PKT
 10
552605.355
 20
335296.041
 30
0.0
  0
INSERT
  5
AFF
330
BFE
100
AcDbEntity
  8
RELJ_ELEM_####_####_#
  6
Continuous
 62
     7
420
 16777215
 48
0.7
370
    13
100
AcDbBlockReference
  2
PKT
 10
552618.33
 20
335294.369
 30
0.0
  0
INSERT
  5
B01
330
BFE
100
AcDbEntity
  8
RELJ_ELEM_####_####_#
  6
Continuous
 62
     7
420
 16777215
 48
0.7
370
    13
100
AcDbBlockReference
  2
PKT
 10
552618.342
 20
335294.268
 30
0.0
  0
INSERT
  5
B03
330
BFE
100
AcDbEntity
  8
RELJ_ELEM_####_####_#
  6
Continuous
 62
     7
420
 16777215
 48
0.7
370
    13
100
AcDbBlockReference
  2
PKT
 10
552616.166
 20
335290.069
 30
0.0
  0
INSERT
  5
B05
330
BFE
100
AcDbEntity
  8
RELJ_ELEM_####_####_#
  6
Continuous
 62
     7
420
 16777215
 48
0.7
370
    13
100
AcDbBlockReference
  2
PKT
 10
552616.09
 20
335288.756
 30
0.0
  0
INSERT
  5
B07
330
BFE
100
AcDbEntity
  8
RELJ_ELEM_####_####_#
  6
Continuous
 62
     7
420
 16777215
 48
0.7
370
    13
100
AcDbBlockReference
  2
PKT
 10
552616.544
 20
335288.723
 30
0.0
  0
INSERT
  5
B09
330
BFE
100
AcDbEntity
  8
RELJ_ELEM_####_####_#
  6
Continuous
 62
     7
420
 16777215
 48
0.7
370
    13
100
AcDbBlockReference
  2
PKT
 10
552616.662
 20
335288.363
 30
0.0
  0
INSERT
  5
B0B
330
BFE
100
AcDbEntity
  8
RELJ_ELEM_####_####_#
  6
Continuous
 62
     7
420
 16777215
 48
0.7
370
    13
100
AcDbBlockReference
  2
PKT
 10
552615.573
 20
335282.918
 30
0.0
  0
INSERT
  5
B0D
330
BFE
100
AcDbEntity
  8
RELJ_ELEM_####_####_#
  6
Continuous
 62
     7
420
 16777215
 48
0.7
370
    13
100
AcDbBlockReference
  2
PKT
 10
552609.72
 20
335282.871
 30
0.0
  0
INSERT
  5
B0F
330
BFE
100
AcDbEntity
  8
RELJ_ELEM_####_####_#
  6
Continuous
 62
     7
420
 16777215
 48
0.7
370
    13
100
AcDbBlockReference
  2
PKT
 10
552606.717
 20
335285.943
 30
0.0
  0
INSERT
  5
B11
330
BFE
100
AcDbEntity
  8
RELJ_ELEM_####_####_#
  6
Continuous
 62
     7
420
 16777215
 48
0.7
370
    13
100
AcDbBlockReference
  2
PKT
 10
552606.802
 20
335286.974
 30
0.0
  0
INSERT
  5
B13
330
BFE
100
AcDbEntity
  8
RELJ_ELEM_####_####_#
  6
Continuous
 62
     7
420
 16777215
 48
0.7
370
    13
100
AcDbBlockReference
  2
PKT
 10
552598.746
 20
335272.88
 30
0.0
  0
INSERT
  5
B15
330
BFE
100
AcDbEntity
  8
RELJ_ELEM_####_####_#
  6
Continuous
 62
     7
420
 16777215
 48
0.7
370
    13
100
AcDbBlockReference
  2
PKT
 10
552603.378
 20
335277.899
 30
0.0
  0
LINE
  5
B17
330
BFE
100
AcDbEntity
  8
CELI_CMAL_####_####_#
100
AcDbLine
 10
552622.219536
 20
335274.126907
 30
0.0
 11
552615.15763
 21
335274.753013
 31
0.0
  0
LINE
  5
B18
330
BFE
100
AcDbEntity
  8
CELI_CMAL_####_####_#
100
AcDbLine
 10
552637.712183
 20
335268.109614
 30
0.0
 11
552630.359195
 21
335268.643847
 31
0.0
  0
LINE
  5
B19
330
BFE
100
AcDbEntity
  8
CELI_CMAL_####_####_#
100
AcDbLine
 10
552653.345857
 20
335262.145962
 30
0.0
 11
552645.902
 21
335262.773
 31
0.0
  0
INSERT
  5
B1E
330
BFE
100
AcDbEntity
  8
LKAN_ELEM_####_####_#
  6
Continuous
 62
    34
420
  9853952
 48
0.933333
370
    13
100
AcDbBlockReference
  2
KGULIJA
 10
552620.398
 20
335262.792
 30
0.0
  0
INSERT
  5
B22
330
BFE
100
AcDbEntity
  8
LKAN_ELEM_####_####_#
  6
Continuous
 62
    34
420
  9853952
 48
0.933333
370
    13
100
AcDbBlockReference
  2
KGULIJA
 10
552654.867
 20
335254.157
 30
0.0
  0
LINE
  5
B26
330
BFE
100
AcDbEntity
  8
BUVE_BDET_####_####_#
100
AcDbLine
 10
552653.243349
 20
335261.073458
 30
0.0
 11
552656.183349
 21
335260.792458
 31
0.0
  0
LINE
  5
B27
330
BFE
100
AcDbEntity
  8
BUVE_BDET_####_####_#
100
AcDbLine
 10
552653.275698
 20
335261.411915
 30
0.0
 11
552656.215698
 21
335261.130915
 31
0.0
  0
LINE
  5
B28
330
BFE
100
AcDbEntity
  8
BUVE_BDET_####_####_#
100
AcDbLine
 10
552653.308048
 20
335261.750373
 30
0.0
 11
552656.248048
 21
335261.469373
 31
0.0
  0
LINE
  5
B29
330
BFE
100
AcDbEntity
  8
BUVE_BDET_####_####_#
100
AcDbLine
 10
552653.340397
 20
335262.08883
 30
0.0
 11
552656.280397
 21
335261.80783
 31
0.0
  0
LINE
  5
B2A
330
BFE
100
AcDbEntity
  8
BUVE_BDET_####_####_#
100
AcDbLine
 10
552637.645287
 20
335267.246982
 30
0.0
 11
552640.598287
 21
335267.017982
 31
0.0
  0
LINE
  5
B2B
330
BFE
100
AcDbEntity
  8
BUVE_BDET_####_####_#
100
AcDbLine
 10
552637.671575
 20
335267.585965
 30
0.0
 11
552640.624575
 21
335267.356965
 31
0.0
  0
LINE
  5
B2C
330
BFE
100
AcDbEntity
  8
BUVE_BDET_####_####_#
100
AcDbLine
 10
552637.697862
 20
335267.924947
 30
0.0
 11
552640.650862
 21
335267.695947
 31
0.0
  0
LINE
  5
B2D
330
BFE
100
AcDbEntity
  8
BUVE_BDET_####_####_#
100
AcDbLine
 10
552637.72415
 20
335268.263929
 30
0.0
 11
552640.67715
 21
335268.034929
 31
0.0
  0
LINE
  5
B2E
330
BFE
100
AcDbEntity
  8
BUVE_BDET_####_####_#
100
AcDbLine
 10
552625.272009
 20
335274.140682
 30
0.0
 11
552625.107764
 21
335272.358278
 31
0.0
  0
LINE
  5
B2F
330
BFE
100
AcDbEntity
  8
BUVE_BDET_####_####_#
100
AcDbLine
 10
552625.107764
 20
335272.358278
 30
0.0
 11
552622.08225
 21
335272.637073
 31
0.0
  0
LINE
  5
B30
330
BFE
100
AcDbEntity
  8
BUVE_BDET_####_####_#
100
AcDbLine
 10
552622.246495
 20
335274.419477
 30
0.0
 11
552622.08225
 21
335272.637073
 31
0.0
  0
LINE
  5
B31
330
BFE
100
AcDbEntity
  8
BUVE_BDET_####_####_#
100
AcDbLine
 10
552625.138962
 20
335272.696843
 30
0.0
 11
552622.113448
 21
335272.975639
 31
0.0
  0
LINE
  5
B32
330
BFE
100
AcDbEntity
  8
BUVE_BDET_####_####_#
100
AcDbLine
 10
552625.17016
 20
335273.035409
 30
0.0
 11
552622.144647
 21
335273.314204
 31
0.0
  0
LINE
  5
B33
330
BFE
100
AcDbEntity
  8
BUVE_BDET_####_####_#
100
AcDbLine
 10
552625.201359
 20
335273.373975
 30
0.0
 11
552622.175845
 21
335273.65277
 31
0.0
  0
LINE
  5
B34
330
BFE
100
AcDbEntity
  8
BUVE_BDET_####_####_#
100
AcDbLine
 10
552625.232557
 20
335273.71254
 30
0.0
 11
552622.207043
 21
335273.991335
 31
0.0
  0
LINE
  5
B36
330
BFE
100
AcDbEntity
  8
BUVE_EKAS_####_####_#
100
AcDbLine
 10
552646.483
 20
335263.091
 30
0.0
 11
552646.93829
 21
335268.010732
 31
0.0
  0
LINE
  5
B37
330
BFE
100
AcDbEntity
  8
BUVE_EKAS_####_####_#
100
AcDbLine
 10
552616.662
 20
335288.363
 30
0.0
 11
552615.404
 21
335275.05
 31
0.0
  0
LINE
  5
B38
330
BFE
100
AcDbEntity
  8
BUVE_EKAS_####_####_#
100
AcDbLine
 10
552616.662
 20
335288.363
 30
0.0
 11
552617.150375
 21
335288.322707
 31
0.0
  0
LINE
  5
B39
330
BFE
100
AcDbEntity
  8
BUVE_EKAS_####_####_#
100
AcDbLine
 10
552617.150375
 20
335288.322707
 30
0.0
 11
552617.126855
 21
335288.073798
 31
0.0
  0
LINE
  5
B3A
330
BFE
100
AcDbEntity
  8
BUVE_EKAS_####_####_#
100
AcDbLine
 10
552617.126855
 20
335288.073798
 30
0.0
 11
552617.744395
 21
335288.022848
 31
0.0
  0
LINE
  5
B3B
330
BFE
100
AcDbEntity
  8
BUVE_EKAS_####_####_#
100
AcDbLine
 10
552615.404
 20
335275.05
 30
0.0
 11
552615.951681
 21
335274.999532
 31
0.0
  0
LINE
  5
B3C
330
BFE
100
AcDbEntity
  8
BUVE_EKAS_####_####_#
100
AcDbLine
 10
552615.974259
 20
335275.238469
 30
0.0
 11
552615.951681
 21
335274.999532
 31
0.0
  0
LINE
  5
B3D
330
BFE
100
AcDbEntity
  8
BUVE_EKAS_####_####_#
100
AcDbLine
 10
552615.974259
 20
335275.238469
 30
0.0
 11
552618.783038
 21
335274.979645
 31
0.0
  0
LINE
  5
B3E
330
BFE
100
AcDbEntity
  8
BUVE_EKAS_####_####_#
100
AcDbLine
 10
552619.262654
 20
335274.935449
 30
0.0
 11
552619.240632
 21
335274.696462
 31
0.0
  0
LINE
  5
B3F
330
BFE
100
AcDbEntity
  8
BUVE_EKAS_####_####_#
100
AcDbLine
 10
552618.783038
 20
335274.979645
 30
0.0
 11
552618.761016
 21
335274.740658
 31
0.0
  0
LINE
  5
B40
330
BFE
100
AcDbEntity
  8
BUVE_EKAS_####_####_#
100
AcDbLine
 10
552619.262654
 20
335274.935449
 30
0.0
 11
552621.738032
 21
335274.723592
 31
0.0
  0
LINE
  5
B41
330
BFE
100
AcDbEntity
  8
BUVE_EKAS_####_####_#
100
AcDbLine
 10
552618.761016
 20
335274.740658
 30
0.0
 11
552619.240632
 21
335274.696462
 31
0.0
  0
LINE
  5
B42
330
BFE
100
AcDbEntity
  8
BUVE_EKAS_####_####_#
100
AcDbLine
 10
552625.643409
 20
335274.106458
 30
0.0
 11
552625.670019
 21
335274.395235
 31
0.0
  0
LWPOLYLINE
  5
B43
330
BFE
100
AcDbEntity
  8
BUVE_EKAS_####_####_#
100
AcDbPolyline
 90
        8
 70
     0
 43
0.0
 10
552621.714526
 20
335274.468497
 10
552625.643409
 20
335274.106458
 10
552625.670062
 20
335274.386817
 10
552628.346059
 20
335274.158038
 10
552628.31859
 20
335273.859946
 10
552628.854591
 20
335273.810554
 10
552628.882382
 20
335274.112137
 10
552631.482562
 20
335273.889598
  0
LINE
  5
B44
330
BFE
100
AcDbEntity
  8
BUVE_EKAS_####_####_#
100
AcDbLine
 10
552630.928
 20
335269.023
 30
0.0
 11
552631.482562
 21
335273.889598
 31
0.0
  0
LINE
  5
B45
330
BFE
100
AcDbEntity
  8
BUVE_EKAS_####_####_#
100
AcDbLine
 10
552646.93829
 20
335268.010732
 30
0.0
 11
552641.164739
 21
335268.430211
 31
0.0
  0
LINE
  5
B46
330
BFE
100
AcDbEntity
  8
BUVE_EKAS_####_####_#
100
AcDbLine
 10
552641.14327
 20
335268.134716
 30
0.0
 11
552637.418601
 21
335268.4586
 31
0.0
  0
LINE
  5
B47
330
BFE
100
AcDbEntity
  8
BUVE_EKAS_####_####_#
100
AcDbLine
 10
552637.418601
 20
335268.4586
 30
0.0
 11
552637.444692
 21
335268.767501
 31
0.0
  0
LINE
  5
B48
330
BFE
100
AcDbEntity
  8
BUVE_EKAS_####_####_#
100
AcDbLine
 10
552631.545669
 20
335268.96929
 30
0.0
 11
552631.572524
 21
335269.278124
 31
0.0
  0
LINE
  5
B49
330
BFE
100
AcDbEntity
  8
BUVE_EKAS_####_####_#
100
AcDbLine
 10
552637.444692
 20
335268.767501
 30
0.0
 11
552631.572524
 21
335269.278124
 31
0.0
  0
LINE
  5
B4A
330
BFE
100
AcDbEntity
  8
BUVE_EKAS_####_####_#
100
AcDbLine
 10
552631.545669
 20
335268.96929
 30
0.0
 11
552630.928
 21
335269.023
 31
0.0
  0
LINE
  5
B4B
330
BFE
100
AcDbEntity
  8
BUVE_EKAS_####_####_#
100
AcDbLine
 10
552641.14327
 20
335268.134716
 30
0.0
 11
552641.164739
 21
335268.430211
 31
0.0
  0
LINE
  5
B4C
330
BFE
100
AcDbEntity
  8
BUVE_EKAS_####_####_#
100
AcDbLine
 10
552646.483
 20
335263.091
 30
0.0
 11
552647.050575
 21
335263.038475
 31
0.0
  0
LINE
  5
B4D
330
BFE
100
AcDbEntity
  8
BUVE_EKAS_####_####_#
100
AcDbLine
 10
552647.050575
 20
335263.038475
 30
0.0
 11
552647.076377
 21
335263.317283
 31
0.0
  0
LINE
  5
B4E
330
BFE
100
AcDbEntity
  8
BUVE_EKAS_####_####_#
100
AcDbLine
 10
552649.66435
 20
335262.796586
 30
0.0
 11
552650.321542
 21
335262.735768
 31
0.0
  0
LINE
  5
B4F
330
BFE
100
AcDbEntity
  8
BUVE_EKAS_####_####_#
100
AcDbLine
 10
552647.076377
 20
335263.317283
 30
0.0
 11
552649.690152
 21
335263.075395
 31
0.0
  0
LINE
  5
B50
330
BFE
100
AcDbEntity
  8
BUVE_EKAS_####_####_#
100
AcDbLine
 10
552649.66435
 20
335262.796586
 30
0.0
 11
552649.690152
 21
335263.075395
 31
0.0
  0
LINE
  5
B51
330
BFE
100
AcDbEntity
  8
BUVE_EKAS_####_####_#
100
AcDbLine
 10
552652.981353
 20
335262.489619
 30
0.0
 11
552653.007155
 21
335262.768428
 31
0.0
  0
LINE
  5
B52
330
BFE
100
AcDbEntity
  8
BUVE_EKAS_####_####_#
100
AcDbLine
 10
552656.359679
 20
335262.176977
 30
0.0
 11
552656.385481
 21
335262.455785
 31
0.0
  0
LINE
  5
B53
330
BFE
100
AcDbEntity
  8
BUVE_EKAS_####_####_#
100
AcDbLine
 10
552659.302924
 20
335261.904598
 30
0.0
 11
552659.328726
 21
335262.183407
 31
0.0
  0
LINE
  5
B54
330
BFE
100
AcDbEntity
  8
BUVE_EKAS_####_####_#
100
AcDbLine
 10
552662.50477
 20
335261.608288
 30
0.0
 11
552662.530572
 21
335261.887096
 31
0.0
  0
LINE
  5
B55
330
BFE
100
AcDbEntity
  8
BUVE_EKAS_####_####_#
100
AcDbLine
 10
552650.321542
 20
335262.735768
 30
0.0
 11
552650.347344
 21
335263.014576
 31
0.0
  0
LINE
  5
B56
330
BFE
100
AcDbEntity
  8
BUVE_EKAS_####_####_#
100
AcDbLine
 10
552650.347344
 20
335263.014576
 30
0.0
 11
552653.007155
 21
335262.768428
 31
0.0
  0
LINE
  5
B57
330
BFE
100
AcDbEntity
  8
BUVE_EKAS_####_####_#
100
AcDbLine
 10
552652.981353
 20
335262.489619
 30
0.0
 11
552656.359679
 21
335262.176977
 31
0.0
  0
LINE
  5
B58
330
BFE
100
AcDbEntity
  8
BUVE_EKAS_####_####_#
100
AcDbLine
 10
552656.385481
 20
335262.455785
 30
0.0
 11
552659.328726
 21
335262.183407
 31
0.0
  0
LINE
  5
B59
330
BFE
100
AcDbEntity
  8
BUVE_EKAS_####_####_#
100
AcDbLine
 10
552662.50477
 20
335261.608288
 30
0.0
 11
552663.113
 21
335261.552
 31
0.0
  0
LINE
  5
B5A
330
BFE
100
AcDbEntity
  8
BUVE_EKAS_####_####_#
100
AcDbLine
 10
552659.830669
 20
335261.855759
 30
0.0
 11
552659.856471
 21
335262.134567
 31
0.0
  0
LINE
  5
B5B
330
BFE
100
AcDbEntity
  8
BUVE_EKAS_####_####_#
100
AcDbLine
 10
552659.856471
 20
335262.134567
 30
0.0
 11
552662.530572
 21
335261.887096
 31
0.0
  0
LINE
  5
B5C
330
BFE
100
AcDbEntity
  8
BUVE_EKAS_####_####_#
100
AcDbLine
 10
552659.302924
 20
335261.904598
 30
0.0
 11
552659.830669
 21
335261.855759
 31
0.0
  0
LINE
  5
B5D
330
BFE
100
AcDbEntity
  8
BUVE_EKAS_####_####_#
100
AcDbLine
 10
552663.183964
 20
335262.37936
 30
0.0
 11
552663.133488
 21
335262.38369
 31
0.0
  0
LINE
  5
B5F
330
BFE
100
AcDbEntity
  8
BUVE_EKAS_####_####_#
100
AcDbLine
 10
552663.113
 20
335261.552
 30
0.0
 11
552663.183964
 21
335262.37936
 31
0.0
  0
LINE
  5
B60
330
BFE
100
AcDbEntity
  8
BUVE_EKAS_####_####_#
100
AcDbLine
 10
552664.09
 20
335270.747
 30
0.0
 11
552663.852573
 21
335270.767365
 31
0.0
  0
LINE
  5
B61
330
BFE
100
AcDbEntity
  8
BUVE_EKAS_####_####_#
100
AcDbLine
 10
552664.006829
 20
335269.777328
 30
0.0
 11
552663.769402
 21
335269.797693
 31
0.0
  0
LINE
  5
B62
330
BFE
100
AcDbEntity
  8
BUVE_EKAS_####_####_#
100
AcDbLine
 10
552664.006829
 20
335269.777328
 30
0.0
 11
552664.09
 21
335270.747
 31
0.0
  0
LINE
  5
B63
330
BFE
100
AcDbEntity
  8
BUVE_EKAS_####_####_#
100
AcDbLine
 10
552663.133488
 20
335262.38369
 30
0.0
 11
552663.769402
 21
335269.797693
 31
0.0
  0
LWPOLYLINE
  5
B64
330
BFE
100
AcDbEntity
  8
BUVE_EKAS_####_####_#
100
AcDbPolyline
 90
       19
 70
     0
 43
0.0
 10
552663.852573
 20
335270.767365
 10
552664.210334
 20
335274.938432
 10
552657.880724
 20
335275.456288
 10
552657.941834
 20
335276.203221
 10
552654.101334
 20
335276.517432
 10
552654.040223
 20
335275.770498
 10
552648.270983
 20
335276.242508
 10
552648.660334
 20
335281.001432
 10
552642.272297
 20
335281.524068
 10
552642.330334
 20
335282.233432
 10
552638.489833
 20
335282.547642
 10
552638.431796
 20
335281.838278
 10
552632.757998
 20
335282.302479
 10
552633.139334
 20
335286.963432
 10
552626.81898
 20
335287.480531
 10
552626.871334
 20
335288.120432
 10
552623.052199
 20
335288.432894
 10
552622.999845
 20
335287.792993
 10
552618.091161
 20
335288.194596
  0
LINE
  5
B77
330
BFE
100
AcDbEntity
  8
BUVE_EKAS_####_####_#
100
AcDbLine
 10
552621.714526
 20
335274.468497
 30
0.0
 11
552621.738032
 21
335274.723592
 31
0.0
  0
LINE
  5
B78
330
BFE
100
AcDbEntity
  8
CELI_CMAL_####_####_#
100
AcDbLine
 10
552616.09
 20
335288.756
 30
0.0
 11
552621.077677
 21
335288.314303
 31
0.0
  0
INSERT
  5
B79
330
BFE
100
AcDbEntity
  8
APGS_ELEM_####_####_#
  6
Continuous
 62
   240
420
 16646238
 48
0.933333
370
     0
100
AcDbBlockReference
  2
APLAMP
 10
552671.793
 20
335210.344
 30
0.0
  0
LWPOLYLINE
  5
B80
330
BFE
100
AcDbEntity
  8
CELI_CAPM_####_####_#
100
AcDbPolyline
 90
        3
 70
     0
 43
0.0
 10
552652.796
 20
335219.364
 10
552652.976
 20
335221.387
 10
552653.149
 20
335222.983
  0
LWPOLYLINE
  5
B81
330
BFE
100
AcDbEntity
  8
A_cela_apmale_jauna
 62
     1
100
AcDbPolyline
 90
        8
 70
   128
 43
0.0
 10
552653.149
 20
335222.983
 10
552657.832
 20
335220.673
 10
552658.37
 20
335227.069
 10
552658.987
 20
335234.208
 10
552659.701
 20
335242.659
 10
552660.619
 20
335253.699
 10
552656.734
 20
335254.622
 10
552655.791706
 20
335254.819968
  0
LWPOLYLINE
  5
B82
330
BFE
100
AcDbEntity
  8
CELI_CAPM_####_####_#
100
AcDbPolyline
 90
        2
 70
     0
 43
0.0
 10
552649.690565
 20
335224.678891
 10
552649.665
 20
335224.364
  0
LWPOLYLINE
  5
B83
330
BFE
100
AcDbEntity
  8
A_cela_apmale_veca
 62
     3
100
AcDbPolyline
 90
        3
 70
   128
 43
0.0
 10
552651.145
 20
335242.99
 10
552650.589
 20
335235.745
 10
552649.690565
 20
335224.678891
  0
LWPOLYLINE
  5
B84
330
BFE
100
AcDbEntity
  8
A_cela_apmale_jauna
 62
     1
100
AcDbPolyline
 90
       12
 70
   128
 43
0.0
 10
552613.362284
 20
335258.285603
 10
552613.369
 20
335258.287
 10
552614.091
 20
335258.421
 10
552615.662
 20
335253.953
 10
552626.101
 20
335251.357
 10
552634.845
 20
335249.161
 10
552642.218
 20
335247.328
 10
552649.014
 20
335245.623
 10
552649.758832
 20
335245.326987
 10
552650.382
 20
335244.867
 10
552650.950846
 20
335244.101708
 10
552651.145
 20
335242.99
  0
LWPOLYLINE
  5
B85
330
BFE
100
AcDbEntity
  8
A_cela_apmale_veca
 62
     3
100
AcDbPolyline
 90
        2
 70
   128
 43
0.0
 10
552601.525388
 20
335255.823497
 10
552613.362284
 20
335258.285603
  0
LWPOLYLINE
  5
B86
330
BFE
100
AcDbEntity
  8
CELI_CAPM_####_####_#
100
AcDbPolyline
 90
       27
 70
     0
 43
0.0
 10
552649.665
 20
335224.364
 10
552649.069
 20
335221.395
 10
552648.706
 20
335220.495
 10
552648.086
 20
335219.665
 10
552647.313
 20
335219.05
 10
552646.369
 20
335218.781
 10
552645.385
 20
335218.918
 10
552636.59
 20
335224.622
 10
552631.886
 20
335227.66
 10
552631.091
 20
335228.291
 10
552628.533
 20
335229.948
 10
552621.974
 20
335234.895
 10
552612.725
 20
335241.88
 10
552600.815
 20
335250.818
 10
552600.484222
 20
335251.162874
 10
552600.179
 20
335251.576
 10
552599.967419
 20
335251.916469
 10
552599.712
 20
335252.412
 10
552599.595966
 20
335252.913813
 10
552599.591
 20
335253.442
 10
552599.733414
 20
335253.936942
 10
552599.918
 20
335254.355
 10
552600.240252
 20
335254.799519
 10
552600.549
 20
335255.152
 10
552601.026452
 20
335255.536612
 10
552601.523
 20
335255.823
 10
552601.525388
 20
335255.823497
  0
LWPOLYLINE
  5
B87
330
BFE
100
AcDbEntity
  8
CELI_CAPM_####_####_#
100
AcDbPolyline
 90
       27
 70
     0
 43
0.0
 10
552597.773481
 20
335258.634249
 10
552596.766
 20
335258.427
 10
552595.745
 20
335258.267
 10
552593.771
 20
335258.015
 10
552592.812304
 20
335258.020883
 10
552591.99
 20
335258.138
 10
552591.525
 20
335258.309
 10
552591.102455
 20
335258.493942
 10
552590.657
 20
335258.767
 10
552580.586
 20
335267.034
 10
552580.250322
 20
335267.466666
 10
552580.008
 20
335267.909
 10
552579.947937
 20
335268.385282
 10
552579.953
 20
335268.892
 10
552580.0469
 20
335269.375406
 10
552580.227
 20
335269.835
 10
552580.778
 20
335270.621
 10
552582.512
 20
335272.645
 10
552592.391
 20
335283.806
 10
552602.536
 20
335295.016
 10
552602.938848
 20
335295.37465
 10
552603.363
 20
335295.667
 10
552603.835007
 20
335295.908217
 10
552604.322
 20
335296.095
 10
552604.868613
 20
335296.17225
 10
552605.36
 20
335296.17
 10
552618.33
 20
335294.369
  0
LWPOLYLINE
  5
B88
330
BFE
100
AcDbEntity
  8
A_cela_apmale_veca
 62
     3
100
AcDbPolyline
 90
       10
 70
   128
 43
0.0
 10
552655.791706
 20
335254.819968
 10
552652.493
 20
335255.513
 10
552639.972
 20
335258.645
 10
552636.834
 20
335259.416
 10
552624.109
 20
335262.59
 10
552621.469
 20
335263.225
 10
552620.991136
 20
335263.291595
 10
552620.449
 20
335263.287
 10
552611.826
 20
335261.525
 10
552597.773481
 20
335258.634249
  0
LINE
  5
B89
330
BFE
100
AcDbEntity
  8
CELI_CMAL_####_####_#
100
AcDbLine
 10
552597.773481
 20
335258.634249
 30
0.0
 11
552601.525388
 21
335255.823497
 31
0.0
  0
LINE
  5
B8A
330
BFE
100
AcDbEntity
  8
CELI_CMAL_####_####_#
100
AcDbLine
 10
552649.690565
 20
335224.678891
 30
0.0
 11
552653.149
 21
335222.983
 31
0.0
  0
HATCH
  5
B8E
330
BFE
100
AcDbEntity
  8
A_segumi_brugis
  6
Continuous
 62
     3
370
     0
100
AcDbHatch
 10
0.0
 20
0.0
 30
0.0
210
0.0
220
0.0
230
1.0
  2
SOLID
 70
     1
 71
     0
 91
        1
 92
        3
 72
     0
 73
     1
 93
       19
 10
552655.7568510614
 20
335254.8272911352
 10
552652.493
 20
335255.5130000001
 10
552639.9720000001
 20
335258.645
 10
552636.8340000001
 20
335259.4160000002
 10
552624.109
 20
335262.5900000002
 10
552621.469
 20
335263.2250000001
 10
552621.1993897007
 20
335263.2625730453
 10
552621.7926314719
 20
335269.5618067313
 10
552621.7980779414
 20
335269.6196391129
 10
552622.0822502535
 20
335272.6370729616
 10
552625.107764101
 20
335272.3582777411
 10
552624.318
 20
335263.517
 10
552636.994
 20
335260.386
 10
552637.6189999997
 20
335266.908
 10
552640.5720000001
 20
335266.679
 10
552640.053
 20
335259.6010000001
 10
552652.7439999999
 20
335256.385
 10
552653.211
 20
335260.735
 10
552656.1510000001
 20
335260.454
 97
        0
 75
     0
 76
     1
 98
        1
 10
0.0
 20
0.0
450
        0
451
        0
460
0.0
461
0.0
452
        0
462
0.0
453
        0
470

  0
HATCH
  5
B9C
330
BFE
100
AcDbEntity
  8
A_segumi_asfalts
  6
Continuous
 62
     2
370
     0
100
AcDbHatch
 10
0.0
 20
0.0
 30
0.0
210
0.0
220
0.0
230
1.0
  2
SOLID
 70
     1
 71
     0
 91
        1
 92
        3
 72
     0
 73
     1
 93
       27
 10
552653.1489999999
 20
335222.9830000002
 10
552649.6905653428
 20
335224.6788908724
 10
552650.5890000001
 20
335235.745
 10
552651.145
 20
335242.99
 10
552651.806
 20
335248.3770000001
 10
552649.8870000001
 20
335250.782
 10
552642.4820000001
 20
335252.31
 10
552634.6820000003
 20
335253.9330000001
 10
552626.696
 20
335256.081
 10
552614.091
 20
335258.4210000002
 10
552613.3689999999
 20
335258.2870000001
 10
552613.3622841948
 20
335258.2856030944
 10
552601.525387902
 20
335255.8234966902
 10
552597.7734806209
 20
335258.6342493335
 10
552611.826
 20
335261.525
 10
552620.4490000001
 20
335263.287
 10
552620.9911362428
 20
335263.291595366
 10
552621.1993897007
 20
335263.2625730453
 10
552621.469
 20
335263.2250000001
 10
552624.109
 20
335262.5900000002
 10
552636.8340000001
 20
335259.4160000002
 10
552639.9720000001
 20
335258.645
 10
552652.493
 20
335255.5130000001
 10
552655.7568510614
 20
335254.8272911352
 10
552655.7893668481
 20
335254.8204598298
 10
552654.9760000003
 20
335247.523
 10
552654.0600000004
 20
335235.6590000001
 97
        0
 75
     0
 76
     1
 98
        1
 10
0.0
 20
0.0
450
        0
451
        0
460
0.0
461
0.0
452
        0
462
0.0
453
        0
470

  0
HATCH
  5
BAB
330
BFE
100
AcDbEntity
  8
A_segumi_skembas
  6
Continuous
 62
   253
370
     0
100
AcDbHatch
 10
0.0
 20
0.0
 30
0.0
210
0.0
220
0.0
230
1.0
  2
SOLID
 70
     1
 71
     0
 91
        1
 92
        3
 72
     0
 73
     1
 93
       17
 10
552651.145
 20
335242.99
 10
552650.95084624
 20
335244.1017077461
 10
552650.382
 20
335244.867
 10
552649.7588318121
 20
335245.3269868108
 10
552649.0140000001
 20
335245.6230000001
 10
552642.218
 20
335247.328
 10
552635.2919363227
 20
335249.0498872536
 10
552634.845
 20
335249.1610000001
 10
552634.8066225192
 20
335249.1706382603
 10
552626.101
 20
335251.357
 10
552615.662
 20
335253.9530000001
 10
552614.091
 20
335258.4210000002
 10
552626.696
 20
335256.081
 10
552634.6820000003
 20
335253.9330000001
 10
552642.4820000001
 20
335252.31
 10
552649.8870000001
 20
335250.782
 10
552651.806
 20
335248.3770000001
 97
        0
 75
     0
 76
     1
 98
        1
 10
0.0
 20
0.0
450
        0
451
        0
460
0.0
461
0.0
452
        0
462
0.0
453
        0
470

  0
HATCH
  5
BB1
330
BFE
100
AcDbEntity
  8
A_segumi_skembas
  6
Continuous
 62
   253
370
     0
100
AcDbHatch
 10
0.0
 20
0.0
 30
0.0
210
0.0
220
0.0
230
1.0
  2
SOLID
 70
     1
 71
     0
 91
        1
 92
        3
 72
     0
 73
     1
 93
       10
 10
552657.8320000003
 20
335220.6730000002
 10
552653.1489999999
 20
335222.9830000002
 10
552654.0600000004
 20
335235.6590000001
 10
552654.9760000003
 20
335247.523
 10
552655.7893668481
 20
335254.8204598298
 10
552656.7339999999
 20
335254.622
 10
552660.6189999999
 20
335253.699
 10
552659.701
 20
335242.659
 10
552658.9870000001
 20
335234.2080000001
 10
552658.37
 20
335227.069
 97
        0
 75
     0
 76
     1
 98
        1
 10
0.0
 20
0.0
450
        0
451
        0
460
0.0
461
0.0
452
        0
462
0.0
453
        0
470

  0
MTEXT
  5
BB9
330
BFE
100
AcDbEntity
  8
RAMI_PLAN_####_TKST_#
 62
     7
100
AcDbMText
 10
552586.839899
 20
335221.105867
 30
0.0
 40
1.0
 41
0.0
 46
0.0
 71
     7
 72
     1
  1
ESOŠĀS SITUĀCIJAS SHĒMA\P\PAsfalts^I^I376.7m2\P\LŠķembas^I^I340.1m2\P\lKopā^I^I^I716.8m2\P\PBruģis trotuāros^I94.6m2\P\PJaunā ielas apmale^I86.8m\PVecā ielas apmale^I^I90.0m\P
  7
Arial_1_LB
 73
     2
 44
0.78
  0
ENDSEC
  0
SECTION
  2
OBJECTS
  0
DICTIONARY
  5
C03
330
0
100
AcDbDictionary
281
     1
  3
ACAD_COLOR
350
C3F
  3
ACAD_GROUP
350
C2C
  3
ACAD_LAYOUT
350
C10
  3
ACAD_MATERIAL
350
C05
  3
ACAD_MLEADERSTYLE
350
C42
  3
ACAD_MLINESTYLE
350
C2D
  3
ACAD_PLOTSETTINGS
350
C2E
  3
ACAD_PLOTSTYLENAME
350
C02
  3
ACAD_SCALELIST
350
C40
  3
ACAD_TABLESTYLE
350
C41
  3
ACAD_VISUALSTYLE
350
C26
  3
AcadDim
350
C74
  3
ACDB_RECOMPOSE_DATA
350
E50
  3
AcDbVariableDictionary
350
CB0
  3
MicroStation
350
C75
  0
DICTIONARY
  5
C19
330
C18
100
AcDbDictionary
280
     1
281
     1
  3
ACAD_LAYERFILTERS
360
C6C
  3
ACAD_LAYERSTATES
360
C1A
  0
DICTIONARY
  5
C3F
102
{ACAD_REACTORS
330
C03
102
}
330
C03
100
AcDbDictionary
281
     1
  0
DICTIONARY
  5
C2C
102
{ACAD_REACTORS
330
C03
102
}
330
C03
100
AcDbDictionary
281
     1
  0
DICTIONARY
  5
C10
102
{ACAD_REACTORS
330
C03
102
}
330
C03
100
AcDbDictionary
281
     1
  3
Layout1
350
C14
  3
Model
350
C0F
  0
DICTIONARY
  5
C05
102
{ACAD_REACTORS
330
C03
102
}
330
C03
100
AcDbDictionary
281
     1
  3
ByBlock
350
C37
  3
ByLayer
350
C2F
  3
Global
350
C04
  0
DICTIONARY
  5
C42
102
{ACAD_REACTORS
330
C03
102
}
330
C03
100
AcDbDictionary
281
     1
  3
Standard
350
CD7
  0
DICTIONARY
  5
C2D
102
{ACAD_REACTORS
330
C03
102
}
330
C03
100
AcDbDictionary
281
     1
  3
Standard
350
C43
  0
DICTIONARY
  5
C2E
102
{ACAD_REACTORS
330
C03
102
}
330
C03
100
AcDbDictionary
281
     1
  0
ACDBDICTIONARYWDFLT
  5
C02
102
{ACAD_REACTORS
330
C03
102
}
330
C03
100
AcDbDictionary
281
     1
  3
Normal
350
C01
100
AcDbDictionaryWithDefault
340
C01
  0
DICTIONARY
  5
C40
102
{ACAD_REACTORS
330
C03
102
}
330
C03
100
AcDbDictionary
281
     1
  3
A0
350
C47
  3
A1
350
C48
  3
A2
350
C49
  3
A3
350
C4A
  3
A4
350
C4B
  3
A5
350
C4C
  3
A6
350
C4D
  3
A7
350
C4E
  3
A8
350
C4F
  3
A9
350
C50
  3
B0
350
C51
  3
B1
350
C52
  3
B2
350
C53
  3
B3
350
C54
  3
B4
350
C55
  3
B5
350
C56
  3
B6
350
C57
  3
B7
350
C58
  3
B8
350
C59
  3
B9
350
C5A
  3
C0
350
C5B
  3
C1
350
C5C
  3
C2
350
C5D
  3
C3
350
C5E
  3
C4
350
C5F
  3
C5
350
C60
  3
C6
350
C61
  3
C7
350
C62
  3
C8
350
C63
  3
C9
350
C64
  3
D0
350
C65
  3
D1
350
C66
  3
D2
350
C67
  0
DICTIONARY
  5
C41
102
{ACAD_REACTORS
330
C03
102
}
330
C03
100
AcDbDictionary
281
     1
  3
Standard
350
C44
  0
DICTIONARY
  5
C26
102
{ACAD_REACTORS
330
C03
102
}
330
C03
100
AcDbDictionary
281
     1
  3
2dWireframe
350
C25
  3
3D Hidden
350
CCC
  3
3dWireframe
350
C46
  3
Basic
350
CCB
  3
Brighten
350
CCF
  3
ColorChange
350
CD3
  3
Conceptual
350
CCD
  3
Dim
350
CCE
  3
EdgeColorOff
350
CD6
  3
Facepattern
350
CD2
  3
Flat
350
CC7
  3
FlatWithEdges
350
CC8
  3
Gouraud
350
CC9
  3
GouraudWithEdges
350
CCA
  3
JitterOff
350
CD4
  3
Linepattern
350
CD1
  3
OverhangOff
350
CD5
  3
Realistic
350
C45
  3
Thicken
350
CD0
  0
XRECORD
  5
C74
102
{ACAD_REACTORS
330
C03
102
}
330
C03
100
AcDbXrecord
280
     1
 90
   990106
  3
 
 60
     0
 61
     0
 62
     1
 63
     1
 64
     0
 65
     0
 66
     0
 67
     3
 68
     1
 69
     1
 70
     0
 71
     0
 72
     0
 40
0.0
170
     0
  0
XRECORD
  5
E50
102
{ACAD_REACTORS
330
C03
102
}
330
C03
100
AcDbXrecord
280
     1
 90
        1
330
C44
  0
DICTIONARY
  5
CB0
102
{ACAD_REACTORS
330
C03
102
}
330
C03
100
AcDbDictionary
281
     1
  3
CANNOSCALE
350
CB4
  3
CMLEADERSTYLE
350
CB2
  3
CTABLESTYLE
350
CB1
  3
LAYEREVAL
350
CB6
  3
LAYERNOTIFY
350
CB7
  3
LIGHTINGUNITS
350
CB5
  3
MSLTSCALE
350
CB3
  0
DICTIONARY
  5
C75
102
{ACAD_REACTORS
330
C03
102
}
330
C03
100
AcDbDictionary
281
     1
  3
ModelApplicationElement 0 509
350
1FD
  0
DICTIONARY
  5
C6C
102
{ACAD_REACTORS
330
C19
102
}
330
C19
100
AcDbDictionary
281
     1
  0
DICTIONARY
  5
C1A
102
{ACAD_REACTORS
330
C19
102
}
330
C19
100
AcDbDictionary
281
     1
  0
LAYOUT
  5
C14
102
{ACAD_XDICTIONARY
360
C15
102
}
102
{ACAD_REACTORS
330
C10
102
}
330
C10
100
AcDbPlotSettings
  1

  2
none_device
  4
Letter_(8.50_x_11.00_Inches)
  6

 40
6.35
 41
6.35
 42
6.350006
 43
6.350006
 44
215.899994
 45
279.399994
 46
0.0
 47
0.0
 48
0.0
 49
0.0
140
0.0
141
0.0
142
1.0
143
1.0
 70
   688
 72
     0
 73
     1
 74
     5
  7

 75
    16
147
1.0
 76
     0
 77
     2
 78
   300
148
0.0
149
0.0
100
AcDbLayout
  1
Layout1
 70
     1
 71
     1
 10
-0.25
 20
-0.25
 11
10.75
 21
8.25
 12
0.0
 22
0.0
 32
0.0
 14
1.049744
 24
0.799667
 34
-0.001526
 15
9.450623
 25
7.200577
 35
0.0
146
0.0
 13
0.0
 23
0.0
 33
0.0
 16
1.0
 26
0.0
 36
0.0
 17
0.0
 27
1.0
 37
0.0
 76
     0
330
C11
1001
ACAD_PSEXT
1000
None
1000
None
1000
Not applicable
1000
The layout will not be plotted unless a new plotter configuration name is selected.
1070
     0
  0
LAYOUT
  5
C0F
102
{ACAD_REACTORS
330
C10
102
}
330
C10
100
AcDbPlotSettings
  1

  2
none_device
  4
ANSI_A_(8.50_x_11.00_Inches)
  6

 40
6.35
 41
19.049999
 42
6.350006
 43
19.049988
 44
215.899994
 45
279.399994
 46
0.0
 47
0.0
 48
0.0
 49
0.0
140
0.0
141
0.0
142
1.0
143
2.584895
 70
 11952
 72
     0
 73
     1
 74
     0
  7

 75
     0
147
0.386863
 76
     0
 77
     2
 78
   300
148
0.0
149
0.0
100
AcDbLayout
  1
Model
 70
     1
 71
     0
 10
0.0
 20
0.0
 11
12.0
 21
9.0
 12
0.0
 22
0.0
 32
0.0
 14
0.0
 24
0.0
 34
0.0
 15
0.0
 25
0.0
 35
0.0
146
0.0
 13
0.0
 23
0.0
 33
0.0
 16
1.0
 26
0.0
 36
0.0
 17
0.0
 27
1.0
 37
0.0
 76
     0
330
BFE
  0
MATERIAL
  5
C37
102
{ACAD_XDICTIONARY
360
C38
102
}
102
{ACAD_REACTORS
330
C05
102
}
330
C05
100
AcDbMaterial
  1
ByBlock
 72
     0
 43
0.020833
 43
0.0
 43
0.0
 43
0.0
 43
0.0
 43
0.020833
 43
0.0
 43
0.0
 43
0.0
 43
0.0
 43
1.0
 43
0.0
 43
0.0
 43
0.0
 43
0.0
 43
1.0
 77
     0
 47
0.020833
 47
0.0
 47
0.0
 47
0.0
 47
0.0
 47
0.020833
 47
0.0
 47
0.0
 47
0.0
 47
0.0
 47
1.0
 47
0.0
 47
0.0
 47
0.0
 47
0.0
 47
1.0
171
     0
 49
0.020833
 49
0.0
 49
0.0
 49
0.0
 49
0.0
 49
0.020833
 49
0.0
 49
0.0
 49
0.0
 49
0.0
 49
1.0
 49
0.0
 49
0.0
 49
0.0
 49
0.0
 49
1.0
175
     0
142
0.020833
142
0.0
142
0.0
142
0.0
142
0.0
142
0.020833
142
0.0
142
0.0
142
0.0
142
0.0
142
1.0
142
0.0
142
0.0
142
0.0
142
0.0
142
1.0
179
     0
144
0.020833
144
0.0
144
0.0
144
0.0
144
0.0
144
0.020833
144
0.0
144
0.0
144
0.0
144
0.0
144
1.0
144
0.0
144
0.0
144
0.0
144
0.0
144
1.0
147
0.020833
147
0.0
147
0.0
147
0.0
147
0.0
147
0.020833
147
0.0
147
0.0
147
0.0
147
0.0
147
1.0
147
0.0
147
0.0
147
0.0
147
0.0
147
1.0
  0
MATERIAL
  5
C2F
102
{ACAD_XDICTIONARY
360
C30
102
}
102
{ACAD_REACTORS
330
C05
102
}
330
C05
100
AcDbMaterial
  1
ByLayer
 72
     0
 43
0.020833
 43
0.0
 43
0.0
 43
0.0
 43
0.0
 43
0.020833
 43
0.0
 43
0.0
 43
0.0
 43
0.0
 43
1.0
 43
0.0
 43
0.0
 43
0.0
 43
0.0
 43
1.0
 77
     0
 47
0.020833
 47
0.0
 47
0.0
 47
0.0
 47
0.0
 47
0.020833
 47
0.0
 47
0.0
 47
0.0
 47
0.0
 47
1.0
 47
0.0
 47
0.0
 47
0.0
 47
0.0
 47
1.0
171
     0
 49
0.020833
 49
0.0
 49
0.0
 49
0.0
 49
0.0
 49
0.020833
 49
0.0
 49
0.0
 49
0.0
 49
0.0
 49
1.0
 49
0.0
 49
0.0
 49
0.0
 49
0.0
 49
1.0
175
     0
142
0.020833
142
0.0
142
0.0
142
0.0
142
0.0
142
0.020833
142
0.0
142
0.0
142
0.0
142
0.0
142
1.0
142
0.0
142
0.0
142
0.0
142
0.0
142
1.0
179
     0
144
0.020833
144
0.0
144
0.0
144
0.0
144
0.0
144
0.020833
144
0.0
144
0.0
144
0.0
144
0.0
144
1.0
144
0.0
144
0.0
144
0.0
144
0.0
144
1.0
147
0.020833
147
0.0
147
0.0
147
0.0
147
0.0
147
0.020833
147
0.0
147
0.0
147
0.0
147
0.0
147
1.0
147
0.0
147
0.0
147
0.0
147
0.0
147
1.0
  0
MATERIAL
  5
C04
102
{ACAD_XDICTIONARY
360
C06
102
}
102
{ACAD_REACTORS
330
C05
102
}
330
C05
100
AcDbMaterial
  1
Global
 72
     0
 43
0.020833
 43
0.0
 43
0.0
 43
0.0
 43
0.0
 43
0.020833
 43
0.0
 43
0.0
 43
0.0
 43
0.0
 43
1.0
 43
0.0
 43
0.0
 43
0.0
 43
0.0
 43
1.0
 77
     0
 47
0.020833
 47
0.0
 47
0.0
 47
0.0
 47
0.0
 47
0.020833
 47
0.0
 47
0.0
 47
0.0
 47
0.0
 47
1.0
 47
0.0
 47
0.0
 47
0.0
 47
0.0
 47
1.0
171
     0
 49
0.020833
 49
0.0
 49
0.0
 49
0.0
 49
0.0
 49
0.020833
 49
0.0
 49
0.0
 49
0.0
 49
0.0
 49
1.0
 49
0.0
 49
0.0
 49
0.0
 49
0.0
 49
1.0
175
     0
142
0.020833
142
0.0
142
0.0
142
0.0
142
0.0
142
0.020833
142
0.0
142
0.0
142
0.0
142
0.0
142
1.0
142
0.0
142
0.0
142
0.0
142
0.0
142
1.0
179
     0
144
0.020833
144
0.0
144
0.0
144
0.0
144
0.0
144
0.020833
144
0.0
144
0.0
144
0.0
144
0.0
144
1.0
144
0.0
144
0.0
144
0.0
144
0.0
144
1.0
147
0.020833
147
0.0
147
0.0
147
0.0
147
0.0
147
0.020833
147
0.0
147
0.0
147
0.0
147
0.0
147
1.0
147
0.0
147
0.0
147
0.0
147
0.0
147
1.0
  0
MLEADERSTYLE
  5
CD7
102
{ACAD_REACTORS
330
C42
102
}
330
C42
100
AcDbMLeaderStyle
170
     2
171
     1
172
     0
 90
        2
 40
0.0
 41
0.0
173
     1
 91
-1056964608
340
C1F
 92
       -2
290
     1
 42
0.09
291
     1
 43
0.36
  3
Standard
 44
0.18
300

342
C1C
174
     1
178
     6
175
     1
176
     0
 93
-1056964608
 45
0.18
292
     0
297
     0
 46
0.18
 94
-1056964608
 47
1.0
 49
1.0
140
1.0
293
     1
141
0.0
294
     1
177
     0
142
1.0
295
     0
296
     0
143
0.125
1001
ACAD_MLEADERVER
1070
     2
  0
MLINESTYLE
  5
C43
102
{ACAD_REACTORS
330
C2D
102
}
330
C2D
100
AcDbMlineStyle
  2
STANDARD
 70
     0
  3

 62
   256
 51
90.0
 52
90.0
 71
     2
 49
0.5
 62
   256
  6
BYLAYER
 49
-0.5
 62
   256
  6
BYLAYER
  0
ACDBPLACEHOLDER
  5
C01
102
{ACAD_REACTORS
330
C02
102
}
330
C02
  0
SCALE
  5
C47
102
{ACAD_REACTORS
330
C40
102
}
330
C40
100
AcDbScale
 70
     0
300
1:1
140
1.0
141
1.0
290
     1
  0
SCALE
  5
C48
102
{ACAD_REACTORS
330
C40
102
}
330
C40
100
AcDbScale
 70
     0
300
1:2
140
1.0
141
2.0
290
     0
  0
SCALE
  5
C49
102
{ACAD_REACTORS
330
C40
102
}
330
C40
100
AcDbScale
 70
     0
300
1:4
140
1.0
141
4.0
290
     0
  0
SCALE
  5
C4A
102
{ACAD_REACTORS
330
C40
102
}
330
C40
100
AcDbScale
 70
     0
300
1:5
140
1.0
141
5.0
290
     0
  0
SCALE
  5
C4B
102
{ACAD_REACTORS
330
C40
102
}
330
C40
100
AcDbScale
 70
     0
300
1:8
140
1.0
141
8.0
290
     0
  0
SCALE
  5
C4C
102
{ACAD_REACTORS
330
C40
102
}
330
C40
100
AcDbScale
 70
     0
300
1:10
140
1.0
141
10.0
290
     0
  0
SCALE
  5
C4D
102
{ACAD_REACTORS
330
C40
102
}
330
C40
100
AcDbScale
 70
     0
300
1:16
140
1.0
141
16.0
290
     0
  0
SCALE
  5
C4E
102
{ACAD_REACTORS
330
C40
102
}
330
C40
100
AcDbScale
 70
     0
300
1:20
140
1.0
141
20.0
290
     0
  0
SCALE
  5
C4F
102
{ACAD_REACTORS
330
C40
102
}
330
C40
100
AcDbScale
 70
     0
300
1:30
140
1.0
141
30.0
290
     0
  0
SCALE
  5
C50
102
{ACAD_REACTORS
330
C40
102
}
330
C40
100
AcDbScale
 70
     0
300
1:40
140
1.0
141
40.0
290
     0
  0
SCALE
  5
C51
102
{ACAD_REACTORS
330
C40
102
}
330
C40
100
AcDbScale
 70
     0
300
1:50
140
1.0
141
50.0
290
     0
  0
SCALE
  5
C52
102
{ACAD_REACTORS
330
C40
102
}
330
C40
100
AcDbScale
 70
     0
300
1:100
140
1.0
141
100.0
290
     0
  0
SCALE
  5
C53
102
{ACAD_REACTORS
330
C40
102
}
330
C40
100
AcDbScale
 70
     0
300
2:1
140
2.0
141
1.0
290
     0
  0
SCALE
  5
C54
102
{ACAD_REACTORS
330
C40
102
}
330
C40
100
AcDbScale
 70
     0
300
4:1
140
4.0
141
1.0
290
     0
  0
SCALE
  5
C55
102
{ACAD_REACTORS
330
C40
102
}
330
C40
100
AcDbScale
 70
     0
300
8:1
140
8.0
141
1.0
290
     0
  0
SCALE
  5
C56
102
{ACAD_REACTORS
330
C40
102
}
330
C40
100
AcDbScale
 70
     0
300
10:1
140
10.0
141
1.0
290
     0
  0
SCALE
  5
C57
102
{ACAD_REACTORS
330
C40
102
}
330
C40
100
AcDbScale
 70
     0
300
100:1
140
100.0
141
1.0
290
     0
  0
SCALE
  5
C58
102
{ACAD_REACTORS
330
C40
102
}
330
C40
100
AcDbScale
 70
     0
300
1/128" = 1'-0"
140
0.007813
141
12.0
290
     0
  0
SCALE
  5
C59
102
{ACAD_REACTORS
330
C40
102
}
330
C40
100
AcDbScale
 70
     0
300
1/64" = 1'-0"
140
0.015625
141
12.0
290
     0
  0
SCALE
  5
C5A
102
{ACAD_REACTORS
330
C40
102
}
330
C40
100
AcDbScale
 70
     0
300
1/32" = 1'-0"
140
0.03125
141
12.0
290
     0
  0
SCALE
  5
C5B
102
{ACAD_REACTORS
330
C40
102
}
330
C40
100
AcDbScale
 70
     0
300
1/16" = 1'-0"
140
0.0625
141
12.0
290
     0
  0
SCALE
  5
C5C
102
{ACAD_REACTORS
330
C40
102
}
330
C40
100
AcDbScale
 70
     0
300
3/32" = 1'-0"
140
0.09375
141
12.0
290
     0
  0
SCALE
  5
C5D
102
{ACAD_REACTORS
330
C40
102
}
330
C40
100
AcDbScale
 70
     0
300
1/8" = 1'-0"
140
0.125
141
12.0
290
     0
  0
SCALE
  5
C5E
102
{ACAD_REACTORS
330
C40
102
}
330
C40
100
AcDbScale
 70
     0
300
3/16" = 1'-0"
140
0.1875
141
12.0
290
     0
  0
SCALE
  5
C5F
102
{ACAD_REACTORS
330
C40
102
}
330
C40
100
AcDbScale
 70
     0
300
1/4" = 1'-0"
140
0.25
141
12.0
290
     0
  0
SCALE
  5
C60
102
{ACAD_REACTORS
330
C40
102
}
330
C40
100
AcDbScale
 70
     0
300
3/8" = 1'-0"
140
0.375
141
12.0
290
     0
  0
SCALE
  5
C61
102
{ACAD_REACTORS
330
C40
102
}
330
C40
100
AcDbScale
 70
     0
300
1/2" = 1'-0"
140
0.5
141
12.0
290
     0
  0
SCALE
  5
C62
102
{ACAD_REACTORS
330
C40
102
}
330
C40
100
AcDbScale
 70
     0
300
3/4" = 1'-0"
140
0.75
141
12.0
290
     0
  0
SCALE
  5
C63
102
{ACAD_REACTORS
330
C40
102
}
330
C40
100
AcDbScale
 70
     0
300
1" = 1'-0"
140
1.0
141
12.0
290
     0
  0
SCALE
  5
C64
102
{ACAD_REACTORS
330
C40
102
}
330
C40
100
AcDbScale
 70
     0
300
1-1/2" = 1'-0"
140
1.5
141
12.0
290
     0
  0
SCALE
  5
C65
102
{ACAD_REACTORS
330
C40
102
}
330
C40
100
AcDbScale
 70
     0
300
3" = 1'-0"
140
3.0
141
12.0
290
     0
  0
SCALE
  5
C66
102
{ACAD_REACTORS
330
C40
102
}
330
C40
100
AcDbScale
 70
     0
300
6" = 1'-0"
140
6.0
141
12.0
290
     0
  0
SCALE
  5
C67
102
{ACAD_REACTORS
330
C40
102
}
330
C40
100
AcDbScale
 70
     0
300
1'-0" = 1'-0"
140
12.0
141
12.0
290
     0
  0
TABLESTYLE
  5
C44
102
{ACAD_XDICTIONARY
360
CBA
102
}
102
{ACAD_REACTORS
330
C41
102
}
330
C41
100
AcDbTableStyle
  3
Standard
 70
     0
 71
     0
 40
0.06
 41
0.06
280
     0
281
     0
  7
Standard
140
0.18
170
     2
 62
     0
 63
     7
283
     0
 90
        4
 91
        0
  1

274
    -2
284
     1
 64
     0
275
    -2
285
     1
 65
     0
276
    -2
286
     1
 66
     0
277
    -2
287
     1
 67
     0
278
    -2
288
     1
 68
     0
279
    -2
289
     1
 69
     0
  7
Standard
140
0.25
170
     5
 62
     0
 63
     7
283
     0
 90
        4
 91
        0
  1

274
    -2
284
     1
 64
     0
275
    -2
285
     1
 65
     0
276
    -2
286
     1
 66
     0
277
    -2
287
     1
 67
     0
278
    -2
288
     1
 68
     0
279
    -2
289
     1
 69
     0
  7
Standard
140
0.18
170
     5
 62
     0
 63
     7
283
     0
 90
        4
 91
        0
  1

274
    -2
284
     1
 64
     0
275
    -2
285
     1
 65
     0
276
    -2
286
     1
 66
     0
277
    -2
287
     1
 67
     0
278
    -2
288
     1
 68
     0
279
    -2
289
     1
 69
     0
  0
VISUALSTYLE
  5
C25
102
{ACAD_XDICTIONARY
360
E51
102
}
102
{ACAD_REACTORS
330
C26
102
}
330
C26
100
AcDbVisualStyle
  2

 70
     4
 71
     0
 72
     2
 73
     0
 90
        0
 40
-0.6
 41
-30.0
 62
     5
 63
     7
421
 16777215
 74
     1
 91
        4
 64
     7
 65
   257
 75
     1
175
     1
 42
1.0
 92
        0
 66
   257
 43
1.0
 76
     1
 77
     6
 78
     2
 67
     7
 79
     5
170
     0
171
     0
290
     0
174
     0
 93
        1
 44
0.0
173
     0
291
     0
 45
0.0
1001
ACAD
1000
AcDbSavedByObjectVersion
1070
     0
  0
VISUALSTYLE
  5
CCC
102
{ACAD_XDICTIONARY
360
E61
102
}
102
{ACAD_REACTORS
330
C26
102
}
330
C26
100
AcDbVisualStyle
  2
3D Hidden
 70
     6
 71
     1
 72
     2
 73
     2
 90
        0
 40
-0.6
 41
-30.0
 62
     5
 63
     7
421
 16777215
 74
     2
 91
        2
 64
     7
 65
   257
 75
     2
175
     1
 42
179.0
 92
        0
 66
   257
 43
1.0
 76
     1
 77
     6
 78
     2
 67
     7
 79
     3
170
     0
171
     0
290
     0
174
     0
 93
        1
 44
0.0
173
     0
291
     0
 45
0.0
1001
ACAD
1000
AcDbSavedByObjectVersion
1070
     0
  0
VISUALSTYLE
  5
C46
102
{ACAD_XDICTIONARY
360
E55
102
}
102
{ACAD_REACTORS
330
C26
102
}
330
C26
100
AcDbVisualStyle
  2

 70
     5
 71
     0
 72
     2
 73
     0
 90
        0
 40
-0.6
 41
-30.0
 62
     5
 63
     7
421
 16777215
 74
     1
 91
        4
 64
     7
 65
   257
 75
     1
175
     1
 42
1.0
 92
        0
 66
   257
 43
1.0
 76
     1
 77
     6
 78
     2
 67
     7
 79
     5
170
     0
171
     0
290
     0
174
     0
 93
        1
 44
0.0
173
     0
291
     0
 45
0.0
1001
ACAD
1000
AcDbSavedByObjectVersion
1070
     0
  0
VISUALSTYLE
  5
CCB
102
{ACAD_XDICTIONARY
360
E5F
102
}
102
{ACAD_REACTORS
330
C26
102
}
330
C26
100
AcDbVisualStyle
  2
Basic
 70
     7
 71
     1
 72
     0
 73
     1
 90
        0
 40
-0.6
 41
-30.0
 62
     5
 63
     7
421
 16777215
 74
     0
 91
        4
 64
     7
 65
   257
 75
     1
175
     1
 42
1.0
 92
        8
 66
     7
 43
1.0
 76
     1
 77
     6
 78
     2
 67
     7
 79
     5
170
     0
171
     0
290
     0
174
     0
 93
        1
 44
0.0
173
     0
291
     1
 45
0.0
1001
ACAD
1000
AcDbSavedByObjectVersion
1070
     0
  0
VISUALSTYLE
  5
CCF
102
{ACAD_XDICTIONARY
360
E67
102
}
102
{ACAD_REACTORS
330
C26
102
}
330
C26
100
AcDbVisualStyle
  2
Brighten
 70
    12
 71
     2
 72
     2
 73
     0
 90
        0
 40
-0.6
 41
-30.0
 62
     5
 63
     7
421
 16777215
 74
     1
 91
        4
 64
     7
 65
   257
 75
     1
175
     1
 42
1.0
 92
        8
 66
     7
 43
1.0
 76
     1
 77
     6
 78
     2
 67
     7
 79
     5
170
     0
171
     0
290
     0
174
     0
 93
        1
 44
50.0
173
     0
291
     1
 45
0.0
1001
ACAD
1000
AcDbSavedByObjectVersion
1070
     0
  0
VISUALSTYLE
  5
CD3
102
{ACAD_XDICTIONARY
360
E6F
102
}
102
{ACAD_REACTORS
330
C26
102
}
330
C26
100
AcDbVisualStyle
  2
ColorChange
 70
    16
 71
     2
 72
     2
 73
     3
 90
        0
 40
-0.6
 41
-30.0
 62
     5
 63
     8
421
  8421504
 74
     1
 91
        4
 64
     7
 65
   257
 75
     1
175
     1
 42
1.0
 92
        8
 66
     8
424
  8421504
 43
1.0
 76
     1
 77
     6
 78
     2
 67
     7
 79
     5
170
     0
171
     0
290
     0
174
     0
 93
        1
 44
0.0
173
     0
291
     1
 45
0.0
1001
ACAD
1000
AcDbSavedByObjectVersion
1070
     0
  0
VISUALSTYLE
  5
CCD
102
{ACAD_XDICTIONARY
360
E63
102
}
102
{ACAD_REACTORS
330
C26
102
}
330
C26
100
AcDbVisualStyle
  2
Conceptual
 70
     9
 71
     3
 72
     2
 73
     0
 90
        0
 40
-0.6
 41
-30.0
 62
     5
 63
     7
421
 16777215
 74
     2
 91
        2
 64
     7
 65
   257
 75
     1
175
     1
 42
179.0
 92
        8
 66
     7
 43
1.0
 76
     1
 77
     6
 78
     2
 67
     7
 79
     3
170
     0
171
     0
290
     0
174
     0
 93
        1
 44
0.0
173
     0
291
     0
 45
0.0
1001
ACAD
1000
AcDbSavedByObjectVersion
1070
     0
  0
VISUALSTYLE
  5
CCE
102
{ACAD_XDICTIONARY
360
E65
102
}
102
{ACAD_REACTORS
330
C26
102
}
330
C26
100
AcDbVisualStyle
  2
Dim
 70
    11
 71
     2
 72
     2
 73
     0
 90
        0
 40
-0.6
 41
-30.0
 62
     5
 63
     7
421
 16777215
 74
     1
 91
        4
 64
     7
 65
   257
 75
     1
175
     1
 42
1.0
 92
        8
 66
     7
 43
1.0
 76
     1
 77
     6
 78
     2
 67
     7
 79
     5
170
     0
171
     0
290
     0
174
     0
 93
        1
 44
-50.0
173
     0
291
     1
 45
0.0
1001
ACAD
1000
AcDbSavedByObjectVersion
1070
     0
  0
VISUALSTYLE
  5
CD6
102
{ACAD_XDICTIONARY
360
E75
102
}
102
{ACAD_REACTORS
330
C26
102
}
330
C26
100
AcDbVisualStyle
  2
EdgeColorOff
 70
    22
 71
     2
 72
     2
 73
     0
 90
        0
 40
-0.6
 41
-30.0
 62
     5
 63
     7
421
 16777215
 74
     1
 91
        4
 64
     7
 65
   257
 75
     1
175
     1
 42
1.0
 92
        8
 66
     7
 43
1.0
 76
     1
 77
     6
 78
     2
 67
     7
 79
     5
170
     0
171
     0
290
     0
174
     0
 93
        1
 44
0.0
173
     0
291
     1
 45
0.0
1001
ACAD
1000
AcDbSavedByObjectVersion
1070
     0
  0
VISUALSTYLE
  5
CD2
102
{ACAD_XDICTIONARY
360
E6D
102
}
102
{ACAD_REACTORS
330
C26
102
}
330
C26
100
AcDbVisualStyle
  2
Facepattern
 70
    15
 71
     2
 72
     2
 73
     0
 90
        0
 40
-0.6
 41
-30.0
 62
     5
 63
     7
421
 16777215
 74
     1
 91
        4
 64
     7
 65
   257
 75
     1
175
     1
 42
1.0
 92
        8
 66
     7
 43
1.0
 76
     1
 77
     6
 78
     2
 67
     7
 79
     5
170
     0
171
     0
290
     0
174
     0
 93
        1
 44
0.0
173
     0
291
     1
 45
0.0
1001
ACAD
1000
AcDbSavedByObjectVersion
1070
     0
  0
VISUALSTYLE
  5
CC7
102
{ACAD_XDICTIONARY
360
E57
102
}
102
{ACAD_REACTORS
330
C26
102
}
330
C26
100
AcDbVisualStyle
  2
Flat
 70
     0
 71
     2
 72
     1
 73
     1
 90
        2
 40
-0.6
 41
30.0
 62
     5
 63
     7
421
 16777215
 74
     0
 91
        4
 64
     7
 65
   257
 75
     1
175
     1
 42
1.0
 92
        8
 66
     7
 43
1.0
 76
     1
 77
     6
 78
     2
 67
     7
 79
     5
170
     0
171
     0
290
     0
174
     0
 93
       13
 44
0.0
173
     0
291
     1
 45
0.0
1001
ACAD
1000
AcDbSavedByObjectVersion
1070
     0
  0
VISUALSTYLE
  5
CC8
102
{ACAD_XDICTIONARY
360
E59
102
}
102
{ACAD_REACTORS
330
C26
102
}
330
C26
100
AcDbVisualStyle
  2
FlatWithEdges
 70
     1
 71
     2
 72
     1
 73
     1
 90
        2
 40
-0.6
 41
30.0
 62
     5
 63
     7
421
 16777215
 74
     1
 91
        4
 64
     7
 65
   257
 75
     1
175
     1
 42
1.0
 92
        0
 66
   257
 43
1.0
 76
     1
 77
     6
 78
     2
 67
     7
 79
     5
170
     0
171
     0
290
     0
174
     0
 93
       13
 44
0.0
173
     0
291
     1
 45
0.0
1001
ACAD
1000
AcDbSavedByObjectVersion
1070
     0
  0
VISUALSTYLE
  5
CC9
102
{ACAD_XDICTIONARY
360
E5B
102
}
102
{ACAD_REACTORS
330
C26
102
}
330
C26
100
AcDbVisualStyle
  2
Gouraud
 70
     2
 71
     2
 72
     2
 73
     1
 90
        2
 40
-0.6
 41
30.0
 62
     5
 63
     7
421
 16777215
 74
     0
 91
        4
 64
     7
 65
   257
 75
     1
175
     1
 42
1.0
 92
        0
 66
     7
 43
1.0
 76
     1
 77
     6
 78
     2
 67
     7
 79
     5
170
     0
171
     0
290
     0
174
     0
 93
       13
 44
0.0
173
     0
291
     1
 45
0.0
1001
ACAD
1000
AcDbSavedByObjectVersion
1070
     0
  0
VISUALSTYLE
  5
CCA
102
{ACAD_XDICTIONARY
360
E5D
102
}
102
{ACAD_REACTORS
330
C26
102
}
330
C26
100
AcDbVisualStyle
  2
GouraudWithEdges
 70
     3
 71
     2
 72
     2
 73
     1
 90
        2
 40
-0.6
 41
30.0
 62
     5
 63
     7
421
 16777215
 74
     1
 91
        4
 64
     7
 65
   257
 75
     1
175
     1
 42
1.0
 92
        0
 66
   257
 43
1.0
 76
     1
 77
     6
 78
     2
 67
     7
 79
     5
170
     0
171
     0
290
     0
174
     0
 93
       13
 44
0.0
173
     0
291
     1
 45
0.0
1001
ACAD
1000
AcDbSavedByObjectVersion
1070
     0
  0
VISUALSTYLE
  5
CD4
102
{ACAD_XDICTIONARY
360
E71
102
}
102
{ACAD_REACTORS
330
C26
102
}
330
C26
100
AcDbVisualStyle
  2
JitterOff
 70
    20
 71
     2
 72
     2
 73
     0
 90
        0
 40
-0.6
 41
-30.0
 62
     5
 63
     7
421
 16777215
 74
     1
 91
        4
 64
     7
 65
   257
 75
     1
175
     1
 42
1.0
 92
       10
 66
     7
 43
1.0
 76
     1
 77
     6
 78
     2
 67
     7
 79
     5
170
     0
171
     0
290
     0
174
     0
 93
        1
 44
0.0
173
     0
291
     1
 45
0.0
1001
ACAD
1000
AcDbSavedByObjectVersion
1070
     0
  0
VISUALSTYLE
  5
CD1
102
{ACAD_XDICTIONARY
360
E6B
102
}
102
{ACAD_REACTORS
330
C26
102
}
330
C26
100
AcDbVisualStyle
  2
Linepattern
 70
    14
 71
     2
 72
     2
 73
     0
 90
        0
 40
-0.6
 41
-30.0
 62
     5
 63
     7
421
 16777215
 74
     1
 91
        4
 64
     7
 65
   257
 75
     7
175
     7
 42
1.0
 92
        8
 66
     7
 43
1.0
 76
     1
 77
     6
 78
     2
 67
     7
 79
     5
170
     0
171
     0
290
     0
174
     0
 93
        1
 44
0.0
173
     0
291
     1
 45
0.0
1001
ACAD
1000
AcDbSavedByObjectVersion
1070
     0
  0
VISUALSTYLE
  5
CD5
102
{ACAD_XDICTIONARY
360
E73
102
}
102
{ACAD_REACTORS
330
C26
102
}
330
C26
100
AcDbVisualStyle
  2
OverhangOff
 70
    21
 71
     2
 72
     2
 73
     0
 90
        0
 40
-0.6
 41
-30.0
 62
     5
 63
     7
421
 16777215
 74
     1
 91
        4
 64
     7
 65
   257
 75
     1
175
     1
 42
1.0
 92
        9
 66
     7
 43
1.0
 76
     1
 77
     6
 78
     2
 67
     7
 79
     5
170
     0
171
     0
290
     0
174
     0
 93
        1
 44
0.0
173
     0
291
     1
 45
0.0
1001
ACAD
1000
AcDbSavedByObjectVersion
1070
     0
  0
VISUALSTYLE
  5
C45
102
{ACAD_XDICTIONARY
360
E53
102
}
102
{ACAD_REACTORS
330
C26
102
}
330
C26
100
AcDbVisualStyle
  2

 70
     8
 71
     2
 72
     2
 73
     0
 90
        0
 40
-0.6
 41
-30.0
 62
     5
 63
     7
421
 16777215
 74
     1
 91
        0
 64
     7
 65
   257
 75
     1
175
     1
 42
1.0
 92
        8
 66
     8
424
  7895160
 43
1.0
 76
     1
 77
     6
 78
     2
 67
     7
 79
     5
170
     0
171
     0
290
     0
174
     0
 93
       13
 44
0.0
173
     0
291
     0
 45
0.0
1001
ACAD
1000
AcDbSavedByObjectVersion
1070
     0
  0
VISUALSTYLE
  5
CD0
102
{ACAD_XDICTIONARY
360
E69
102
}
102
{ACAD_REACTORS
330
C26
102
}
330
C26
100
AcDbVisualStyle
  2
Thicken
 70
    13
 71
     2
 72
     2
 73
     0
 90
        0
 40
-0.6
 41
-30.0
 62
     5
 63
     7
421
 16777215
 74
     1
 91
        4
 64
     7
 65
   257
 75
     1
175
     1
 42
1.0
 92
       12
 66
     7
 43
1.0
 76
     1
 77
     6
 78
     2
 67
     7
 79
     5
170
     0
171
     0
290
     0
174
     0
 93
        1
 44
0.0
173
     0
291
     1
 45
0.0
1001
ACAD
1000
AcDbSavedByObjectVersion
1070
     0
  0
DICTIONARYVAR
  5
CB4
102
{ACAD_REACTORS
330
CB0
102
}
330
CB0
100
DictionaryVariables
280
     0
  1
1:1
  0
DICTIONARYVAR
  5
CB2
102
{ACAD_REACTORS
330
CB0
102
}
330
CB0
100
DictionaryVariables
280
     0
  1
STANDARD
  0
DICTIONARYVAR
  5
CB1
102
{ACAD_REACTORS
330
CB0
102
}
330
CB0
100
DictionaryVariables
280
     0
  1
STANDARD
  0
DICTIONARYVAR
  5
CB6
102
{ACAD_REACTORS
330
CB0
102
}
330
CB0
100
DictionaryVariables
280
     0
  1
1
  0
DICTIONARYVAR
  5
CB7
102
{ACAD_REACTORS
330
CB0
102
}
330
CB0
100
DictionaryVariables
280
     0
  1
15
  0
DICTIONARYVAR
  5
CB5
102
{ACAD_REACTORS
330
CB0
102
}
330
CB0
100
DictionaryVariables
280
     0
  1
0
  0
DICTIONARYVAR
  5
CB3
102
{ACAD_REACTORS
330
CB0
102
}
330
CB0
100
DictionaryVariables
280
     0
  1
0
  0
XRECORD
  5
1FD
102
{ACAD_REACTORS
330
C75
102
}
330
C75
100
AcDbXrecord
280
     1
310
B6000010D805000002000000000000000000000000000040A65458411EE01A14C43F5841000000000000000000000000000000000000000000000000000000000000000000000000000000000000000000000000000000000000000000000000000000000000000000000000000000000000000000000000E80300000A0000
310
00010000001E000000000000003E0000006D006D6D4C6174766961313939322E544D00000000000000000000004555524F50450000000000000000000000000000000000004C6174766961313939322E544D0000000000000000000000544D000000000000000000000000000000000000000000005472616E737665727365
310
204D65726361746F720000000000000000000000000000000000000000000000000000000000000000000000000000000000000000005265706C61636564206279204C61747669613932202D204C6174766961203139393200000000000000000000000000000000000000000000000000000000000047656F646574696320
310
5265666572656E63652053797374656D206F662031393830000000000000000000000000000000000000000000000000000000000000004C4B533932202F204C617476696120544D0000000000000000000000000000000000000000000000000000000000000000000000000000000000000000000000455053472C205636
310
2E31312E322C2033303539205B4C617476696A61732052657075626C696B61732056616C737473207A656D6573206469656E65735D000000000000000000000000000000000000000B000000A00F00000000000003000000000017810000000000000000000000000000000000000000000000000000000000000000000000
310
00000000000000000000000000000000000000000000000000000000000000000000000000000000000000000000000000000000000000000000000000000000000000000000000000000000000000000000000000000000000000000000000000000000000000000000000000000000000000000000000000000000000000
310
000000000000000000000000000000000000000000000000000000000000000000000000000000000000000000000000000000000000000000000000000000000000000000000000000000000000000000000000000000000000000000000000000000000000000038400000000080841E410000000060E356C17A14AE47E1
310
FA344052B81E85EBD14B407A14AE47E13A3C408FC2F5285C0F4D400000000000000000000000000000000000000000000000000000000000000000000000000000F03F0000000000000000789CA223B9FCEF3F010000004D6574657200000000000000000000004C6174766961313939320000000000000000000000000000
310
00000000000000000000000000000000000000000000000000000000000000000000000000000000000000000000000000000000000000000000000000000000000000000000000000000000000000000000000000000000000000000000000000000000000000000000000000000000000000000000000000000000000000
310
00000000000000000000000000000000000000000000000000000000000000000000000000000000000000000000000000000000000000000000000000000000000000000000000000000000000000000000000000000000000000000000000000000000000000000000000000000000000000000000000000000000000000
310
00000000000000000000000000000000000000000000000000000000000000000000000000000000000000000000000000000000000000000000000000000000000000000000000000000000000000000000000000000000000000000000000000000000000000000000000000000000000000000000000000000000000000
310
00000000000000000000000000000000000000000000000000000000000000000000000000000000000000000000000000000000000000000000000000000000000000000000000000000000000000000000000000000000000000000000000000000000000000
  0
DICTIONARY
  5
C15
330
C14
100
AcDbDictionary
280
     1
281
     1
  3
ADSK_XREC_LAYOUTTHUMBNAIL
360
C16
  0
DICTIONARY
  5
C38
330
C37
100
AcDbDictionary
280
     1
281
     1
  3
BUMPTILE
360
C39
  3
DIFFUSETILE
360
C3A
  3
OPACITYTILE
360
C3B
  3
REFLECTIONTILE
360
C3C
  3
REFRACTIONTILE
360
C3D
  3
SPECULARTILE
360
C3E
  0
DICTIONARY
  5
C30
330
C2F
100
AcDbDictionary
280
     1
281
     1
  3
BUMPTILE
360
C31
  3
DIFFUSETILE
360
C32
  3
OPACITYTILE
360
C33
  3
REFLECTIONTILE
360
C34
  3
REFRACTIONTILE
360
C35
  3
SPECULARTILE
360
C36
  0
DICTIONARY
  5
C06
330
C04
100
AcDbDictionary
280
     1
281
     1
  3
BUMPTILE
360
C07
  3
DIFFUSETILE
360
C08
  3
OPACITYTILE
360
C09
  3
REFLECTIONTILE
360
C0A
  3
REFRACTIONTILE
360
C0B
  3
SPECULARTILE
360
C0C
  0
DICTIONARY
  5
CBA
330
C44
100
AcDbDictionary
280
     1
281
     1
  3
ACAD_ROUNDTRIP_2008_TABLESTYLE_CELLSTYLEMAP
360
E4F
  0
DICTIONARY
  5
E51
330
C25
100
AcDbDictionary
280
     1
281
     1
  3
ACAD_XREC_ROUNDTRIP
360
E52
  0
DICTIONARY
  5
E61
330
CCC
100
AcDbDictionary
280
     1
281
     1
  3
ACAD_XREC_ROUNDTRIP
360
E62
  0
DICTIONARY
  5
E55
330
C46
100
AcDbDictionary
280
     1
281
     1
  3
ACAD_XREC_ROUNDTRIP
360
E56
  0
DICTIONARY
  5
E5F
330
CCB
100
AcDbDictionary
280
     1
281
     1
  3
ACAD_XREC_ROUNDTRIP
360
E60
  0
DICTIONARY
  5
E67
330
CCF
100
AcDbDictionary
280
     1
281
     1
  3
ACAD_XREC_ROUNDTRIP
360
E68
  0
DICTIONARY
  5
E6F
330
CD3
100
AcDbDictionary
280
     1
281
     1
  3
ACAD_XREC_ROUNDTRIP
360
E70
  0
DICTIONARY
  5
E63
330
CCD
100
AcDbDictionary
280
     1
281
     1
  3
ACAD_XREC_ROUNDTRIP
360
E64
  0
DICTIONARY
  5
E65
330
CCE
100
AcDbDictionary
280
     1
281
     1
  3
ACAD_XREC_ROUNDTRIP
360
E66
  0
DICTIONARY
  5
E75
330
CD6
100
AcDbDictionary
280
     1
281
     1
  3
ACAD_XREC_ROUNDTRIP
360
E76
  0
DICTIONARY
  5
E6D
330
CD2
100
AcDbDictionary
280
     1
281
     1
  3
ACAD_XREC_ROUNDTRIP
360
E6E
  0
DICTIONARY
  5
E57
330
CC7
100
AcDbDictionary
280
     1
281
     1
  3
ACAD_XREC_ROUNDTRIP
360
E58
  0
DICTIONARY
  5
E59
330
CC8
100
AcDbDictionary
280
     1
281
     1
  3
ACAD_XREC_ROUNDTRIP
360
E5A
  0
DICTIONARY
  5
E5B
330
CC9
100
AcDbDictionary
280
     1
281
     1
  3
ACAD_XREC_ROUNDTRIP
360
E5C
  0
DICTIONARY
  5
E5D
330
CCA
100
AcDbDictionary
280
     1
281
     1
  3
ACAD_XREC_ROUNDTRIP
360
E5E
  0
DICTIONARY
  5
E71
330
CD4
100
AcDbDictionary
280
     1
281
     1
  3
ACAD_XREC_ROUNDTRIP
360
E72
  0
DICTIONARY
  5
E6B
330
CD1
100
AcDbDictionary
280
     1
281
     1
  3
ACAD_XREC_ROUNDTRIP
360
E6C
  0
DICTIONARY
  5
E73
330
CD5
100
AcDbDictionary
280
     1
281
     1
  3
ACAD_XREC_ROUNDTRIP
360
E74
  0
DICTIONARY
  5
E53
330
C45
100
AcDbDictionary
280
     1
281
     1
  3
ACAD_XREC_ROUNDTRIP
360
E54
  0
DICTIONARY
  5
E69
330
CD0
100
AcDbDictionary
280
     1
281
     1
  3
ACAD_XREC_ROUNDTRIP
360
E6A
  0
XRECORD
  5
C16
102
{ACAD_REACTORS
330
C15
102
}
330
C15
100
AcDbXrecord
280
     1
310
28000000B40000008B0000000100080000000000BC61000000000000000000000001000000000000FFFFFF0000000000FFFFFF000000000000000000000000000000000000000000000000000000000000000000330000006600000099000000CC000000FF00000000330000333300006633000099330000CC330000FF3300
310
0000660000336600006666000099660000CC660000FF66000000990000339900006699000099990000CC990000FF99000000CC000033CC000066CC000099CC0000CCCC0000FFCC000000FF000033FF000066FF000099FF0000CCFF0000FFFF000000003300330033006600330099003300CC003300FF003300003333003333
310
33006633330099333300CC333300FF33330000663300336633006666330099663300CC663300FF66330000993300339933006699330099993300CC993300FF99330000CC330033CC330066CC330099CC3300CCCC3300FFCC330000FF330033FF330066FF330099FF3300CCFF3300FFFF330000006600330066006600660099
310
006600CC006600FF00660000336600333366006633660099336600CC336600FF33660000666600336666006666660099666600CC666600FF66660000996600339966006699660099996600CC996600FF99660000CC660033CC660066CC660099CC6600CCCC6600FFCC660000FF660033FF660066FF660099FF6600CCFF6600
310
FFFF660000009900330099006600990099009900CC009900FF00990000339900333399006633990099339900CC339900FF33990000669900336699006666990099669900CC669900FF66990000999900339999006699990099999900CC999900FF99990000CC990033CC990066CC990099CC9900CCCC9900FFCC990000FF99
310
0033FF990066FF990099FF9900CCFF9900FFFF99000000CC003300CC006600CC009900CC00CC00CC00FF00CC000033CC003333CC006633CC009933CC00CC33CC00FF33CC000066CC003366CC006666CC009966CC00CC66CC00FF66CC000099CC003399CC006699CC009999CC00CC99CC00FF99CC0000CCCC0033CCCC0066CC
310
CC0099CCCC00CCCCCC00FFCCCC0000FFCC0033FFCC0066FFCC0099FFCC00CCFFCC00FFFFCC000000FF003300FF006600FF009900FF00CC00FF00FF00FF000033FF003333FF006633FF009933FF00CC33FF00FF33FF000066FF003366FF006666FF009966FF00CC66FF00FF66FF000099FF003399FF006699FF009999FF00CC
310
99FF00FF99FF0000CCFF0033CCFF0066CCFF0099CCFF00CCCCFF00FFCCFF0000FFFF0033FFFF0066FFFF0099FFFF00CCFFFF00FFFFFF00000000000D0D0D001A1A1A00282828003535350043434300505050005D5D5D006B6B6B00787878008686860093939300A1A1A100AEAEAE00BBBBBB00C9C9C900D6D6D600E4E4E400
310
F1F1F100FFFFFF0000000000000000000000000000000000000000000000000000000000000000000000000000000000E2E2E2E2E2E2E2E2E2E2E2E2E2E2E2E2E2E2E2E2E2E2E2E2E2E2E2E2E2E2E2E2E2E2E2E2E2E2E2E2E2E2E2E2E2E2E2E2E2E2E2E2E2E2E2E2E2E2E2E2E2E2E2E2E2E2E2E2E2E2E2E2E2E2E2E2E2E2E2
310
E2E2E2E2E2E2E2E2E2E2E2E2E2E2E2E2E2E2E2E2E2E2E2E2E2E2E2E2E2E2E2E2E2E2E2E2E2E2E2E2E2E2E2E2E2E2E2E2E2E2E2E2E2E2E2E2E2E2E2E2E2E2E2E2E2E2E2E2E2E2E2E2E2E2E2E2E2E2E2E2E2E2E2E2E2E2E2E2E2E2E2E2E2E2E2E2E2E2E2E2EFF5F5F5F5F5F5F5F5F5F5F5F5F5F5F5F5F5F5F5F5F5F5F5F5F5F5
310
F5F5F5F5F5F5F5F5F5F5F5F5F5F5F5F5F5F5F5F5F5F5F5F5F5F5F5F5F5F5F5F5F5F5F5F5F5F5F5F5F5F5F5F5F5F5F5F5F5F5F5F5F5F5F5F5F5F5F5F5F5F5F5F5F5F5F5F5F5F5F5F5F5F5F5F5F5F5F5F5F5F5F5F5F5F5F5F5F5F5F5F5F5F5F5F5F5F5F5F5F5F5F5F5F5F5F5F5F5F5F5F5F5F5F5F5F5F5F5F5F5F5F5F5F5F5F5
310
F5F5F5F5F5F5F5F5F5F5F5F5F5F5F5F5F5F5F5F5F5F5F5F5E2E2EFF5F5F5F5F5F5F5F5F5F5F5F5F5F5F5F5F5F5F5F5F5F5F5F5F5F5F5F5F5F5F5F5F5F5F5F5F5F5F5F5F5F5F5F5F5F5F5F5F5F5F5F5F5F5F5F5F5F5F5F5F5F5F5F5F5F5F5F5F5F5F5F5F5F5F5F5F5F5F5F5F5F5F5F5F5F5F5F5F5F5F5F5F5F5F5F5F5F5F5F5
310
F5F5F5F5F5F5F5F5F5F5F5F5F5F5F5F5F5F5F5F5F5F5F5F5F5F5F5F5F5F5F5F5F5F5F5F5F5F5F5F5F5F5F5F5F5F5F5F5F5F5F5F5F5F5F5F5F5F5F5F5F5F5F5F5F5F5F5F5F5F5F5F5F5F5F5F5F5E2E2EFF5F5F5F5F5F5F5F5F5F5F5F5F5F5F5F5F5F5F5F5F5F5F5F5F5F5F5F5F5F5F5F5F5F5F5F5F5F5F5F5F5F5F5F5F5F5F5
310
F5F5F5F5F5F5F5F5F5F5F5F5F5F5F5F5F5F5F5F5F5F5F5F5F5F5F5F5F5F5F5F5F5F5F5F5F5F5F5F5F5F5F5F5F5F5F5F5F5F5F5F5F5F5F5F5F5F5F5F5F5F5F5F5F5F5F5F5F5F5F5F5F5F5F5F5F5F5F5F5F5F5F5F5F5F5F5F5F5F5F5F5F5F5F5F5F5F5F5F5F5F5F5F5F5F5F5F5F5F5F5F5F5F5F5F5F5F5F5F5F5F5F5F5F5F5F5
310
F5F5F5E2E2EFF5F5F5E2E2E2E2E2E2E2E2F5F5F5F5F5F5F5F5F5E2E2E2E2E2E2E2E2E2E2E2E2E2E2E2E2F5F5F5F5F5F5F5F5E2E2E2E2E2E2E2E2E2E2E2E2E2E2E2E2F5F5F5F5F5F5F5F5F5E2E2E2E2E2E2E2E2E2E2E2E2E2E2E2F5F5F5F5F5F5F5F5F5E2E2E2E2E2E2E2E2E2E2E2E2E2E2E2F5F5F5F5F5F5F5F5F5E2E2E2E2
310
E2E2E2E2E2E2E2E2E2E2E2E2F5F5F5F5F5F5F5F5E2E2E2E2E2E2E2E2E2E2E2E2E2E2E2E2F5F5F5F5F5F5F5F5F5E2E2E2E2E2E2E2E2F5F5F5E2E2EFF5F5F5E2F5F5F5F5F5F5F5F5F5F5F5F5F5F5F5F5F5F5F5F5F5F5F5F5F5F5F5F5F5F5F5F5F5F5F5F5F5F5F5F5F5F5F5F5F5F5F5F5F5F5F5F5F5F5F5F5F5F5F5F5F5F5F5F5
310
F5F5F5F5F5F5F5F5F5F5F5F5F5F5F5F5F5F5F5F5F5F5F5F5F5F5F5F5F5F5F5F5F5F5F5F5F5F5F5F5F5F5F5F5F5F5F5F5F5F5F5F5F5F5F5F5F5F5F5F5F5F5F5F5F5F5F5F5F5F5F5F5F5F5F5F5F5F5F5F5F5F5F5F5F5F5F5F5F5F5F5F5F5F5F5F5F5F5F5F5F5F5F5F5F5E2F5F5F5E2E2EFF5F5F5E2F5F5F5F5F5F5F5F5F5F5F5
310
F5F5F5F5F5F5F5F5F5F5F5F5F5F5F5F5F5F5F5F5F5F5F5F5F5F5F5F5F5F5F5F5F5F5F5F5F5F5F5F5F5F5F5F5F5F5F5F5F5F5F5F5F5F5F5F5F5F5F5F5F5F5F5F5F5F5F5F5F5F5F5F5F5F5F5F5F5F5F5F5F5F5F5F5F5F5F5F5F5F5F5F5F5F5F5F5F5F5F5F5F5F5F5F5F5F5F5F5F5F5F5F5F5F5F5F5F5F5F5F5F5F5F5F5F5F5F5
310
F5F5F5F5F5F5F5F5F5F5F5F5F5F5F5F5F5F5F5F5F5F5F5F5F5F5F5F5F5F5F5E2F5F5F5E2E2EFF5F5F5E2F5F5F5F5F5F5F5F5F5F5F5F5F5F5F5F5F5F5F5F5F5F5F5F5F5F5F5F5F5F5F5F5F5F5F5F5F5F5F5F5F5F5F5F5F5F5F5F5F5F5F5F5F5F5F5F5F5F5F5F5F5F5F5F5F5F5F5F5F5F5F5F5F5F5F5F5F5F5F5F5F5F5F5F5F5
310
F5F5F5F5F5F5F5F5F5F5F5F5F5F5F5F5F5F5F5F5F5F5F5F5F5F5F5F5F5F5F5F5F5F5F5F5F5F5F5F5F5F5F5F5F5F5F5F5F5F5F5F5F5F5F5F5F5F5F5F5F5F5F5F5F5F5F5F5F5F5F5F5F5F5F5F5F5F5F5F5F5F5F5F5E2F5F5F5E2E2EFF5F5F5E2F5F5F5F5F5F5F5F5F5F5F5F5F5F5F5F5F5F5F5F5F5F5F5F5F5F5F5F5F5F5F5F5
310
F5F5F5F5F5F5F5F5F5F5F5F5F5F5F5F5F5F5F5F5F5F5F5F5F5F5F5F5F5F5F5F5F5F5F5F5F5F5F5F5F5F5F5F5F5F5F5F5F5F5F5F5F5F5F5F5F5F5F5F5F5F5F5F5F5F5F5F5F5F5F5F5F5F5F5F5F5F5F5F5F5F5F5F5F5F5F5F5F5F5F5F5F5F5F5F5F5F5F5F5F5F5F5F5F5F5F5F5F5F5F5F5F5F5F5F5F5F5F5F5F5F5F5F5F5F5F5
310
F5F5F5F5F5F5F5F5F5F5E2F5F5F5E2E2EFF5F5F5E2F5F5F5F5F5F5F5F5F5F5F5F5F5F5F5F5F5F5F5F5F5F5F5F5F5F5F5F5F5F5F5F5F5F5F5F5F5F5F5F5F5F5F5F5F5F5F5F5F5F5F5F5F5F5F5F5F5F5F5F5F5F5F5F5F5F5F5F5F5F5F5F5F5F5F5F5F5F5F5F5F5F5F5F5F5F5F5F5F5F5F5F5F5F5F5F5F5F5F5F5F5F5F5F5F5F5
310
F5F5F5F5F5F5F5F5F5F5F5F5F5F5F5F5F5F5F5F5F5F5F5F5F5F5F5F5F5F5F5F5F5F5F5F5F5F5F5F5F5F5F5F5F5F5F5F5F5F5F5F5F5F5F5F5F5F5F5F5F5F5F5E2F5F5F5E2E2EFF5F5F5E2F5F5F5F5F5F5F5F5F5F5F5F5F5F5F5F5F5F5F5F5F5F5F5F5F5F5F5F5F5F5F5F5F5F5F5F5F5F5F5F5F5F5F5F5F5F5F5F5F5F5F5F5F5
310
F5F5F5F5F5F5F5F5F5F5F5F5F5F5F5F5F5F5F5F5F5F5F5F5F5F5F5F5F5F5F5F5F5F5F5F5F5F5F5F5F5F5F5F5F5F5F5F5F5F5F5F5F5F5F5F5F5F5F5F5F5F5F5F5F5F5F5F5F5F5F5F5F5F5F5F5F5F5F5F5F5F5F5F5F5F5F5F5F5F5F5F5F5F5F5F5F5F5F5F5F5F5F5F5F5F5F5F5F5F5F5F5F5F5F5F5E2F5F5F5E2E2EFF5F5F5E2
310
F5F5F5F5F5F5F5F5F5F5F5F5F5F5F5F5F5F5F5F5F5F5F5F5F5F5F5F5F5F5F5F5F5F5F5F5F5F5F5F5F5F5F5F5F5F5F5F5F5F5F5F5F5F5F5F5F5F5F5F5F5F5F5F5F5F5F5F5F5F5F5F5F5F5F5F5F5F5F5F5F5F5F5F5F5F5F5F5F5F5F5F5F5F5F5F5F5F5F5F5F5F5F5F5F5F5F5F5F5F5F5F5F5F5F5F5F5F5F5F5F5F5F5F5F5F5F5
310
F5F5F5F5F5F5F5F5F5F5F5F5F5F5F5F5F5F5F5F5F5F5F5F5F5F5F5F5F5F5F5F5F5F5F5F5F5F5F5F5F5F5E2F5F5F5E2E2EFF5F5F5E2F5F5F5F5F5F5F5F5F5F5F5F5F5F5F5F5F5F5F5F5F5F5F5F5F5F5F5F5F5F5F5F5F5F5F5F5F5F5F5F5F5F5F5F5F5F5F5F5F5F5F5F5F5F5F5F5F5F5F5F5F5F5F5F5F5F5F5F5F5F5F5F5F5F5
310
F5F5F5F5F5F5F5F5F5F5F5F5F5F5F5F5F5F5F5F5F5F5F5F5F5F5F5F5F5F5F5F5F5F5F5F5F5F5F5F5F5F5F5F5F5F5F5F5F5F5F5F5F5F5F5F5F5F5F5F5F5F5F5F5F5F5F5F5F5F5F5F5F5F5F5F5F5F5F5F5F5F5F5F5F5F5F5F5F5F5F5F5F5F5F5E2F5F5F5E2E2EFF5F5F5F5F5F5F5F5F5F5F5F5F5F5F5F5F5F5F5F5F5F5F5F5F5
310
F5F5F5F5F5F5F5F5F5F5F5F5F5F5F5F5F5F5F5F5F5F5F5F5F5F5F5F5F5F5F5F5F5F5F5F5F5F5F5F5F5F5F5F5F5F5F5F5F5F5F5F5F5F5F5F5F5F5F5F5F5F5F5F5F5F5F5F5F5F5F5F5F5F5F5F5F5F5F5F5F5F5F5F5F5F5F5F5F5F5F5F5F5F5F5F5F5F5F5F5F5F5F5F5F5F5F5F5F5F5F5F5F5F5F5F5F5F5F5F5F5F5F5F5F5F5F5
310
F5F5F5F5F5F5F5F5F5F5F5F5F5F5F5F5F5F5F5F5F5F5F5F5F5E2E2EFF5F5F5F5F5F5F5F5F5F5F5F5F5F5F5F5F5F5F5F5F5F5F5F5F5F5F5F5F5F5F5F5F5F5F5F5F5F5F5F5F5F5F5F5F5F5F5F5F5F5F5F5F5F5F5F5F5F5F5F5F5F5F5F5F5F5F5F5F5F5F5F5F5F5F5F5F5F5F5F5F5F5F5F5F5F5F5F5F5F5F5F5F5F5F5F5F5F5F5
310
F5F5F5F5F5F5F5F5F5F5F5F5F5F5F5F5F5F5F5F5F5F5F5F5F5F5F5F5F5F5F5F5F5F5F5F5F5F5F5F5F5F5F5F5F5F5F5F5F5F5F5F5F5F5F5F5F5F5F5F5F5F5F5F5F5F5F5F5F5F5F5F5F5F5F5F5F5F5E2E2EFF5F5F5F5F5F5F5F5F5F5F5F5F5F5F5F5F5F5F5F5F5F5F5F5F5F5F5F5F5F5F5F5F5F5F5F5F5F5F5F5F5F5F5F5F5F5
310
F5F5F5F5F5F5F5F5F5F5F5F5F5F5F5F5F5F5F5F5F5F5F5F5F5F5F5F5F5F5F5F5F5F5F5F5F5F5F5F5F5F5F5F5F5F5F5F5F5F5F5F5F5F5F5F5F5F5F5F5F5F5F5F5F5F5F5F5F5F5F5F5F5F5F5F5F5F5F5F5F5F5F5F5F5F5F5F5F5F5F5F5F5F5F5F5F5F5F5F5F5F5F5F5F5F5F5F5F5F5F5F5F5F5F5F5F5F5F5F5F5F5F5F5F5F5F5
310
F5F5F5F5E2E2EFF5F5F5F5F5F5F5F5F5F5F5F5F5F5F5F5F5F5F5F5F5F5F5F5F5F5F5F5F5F5F5F5F5F5F5F5F5F5F5F5F5F5F5F5F5F5F5F5F5F5F5F5F5F5F5F5F5F5F5F5F5F5F5F5F5F5F5F5F5F5F5F5F5F5F5F5F5F5F5F5F5F5F5F5F5F5F5F5F5F5F5F5F5F5F5F5F5F5F5F5F5F5F5F5F5F5F5F5F5F5F5F5F5F5F5F5F5F5F5F5
310
F5F5F5F5F5F5F5F5F5F5F5F5F5F5F5F5F5F5F5F5F5F5F5F5F5F5F5F5F5F5F5F5F5F5F5F5F5F5F5F5F5F5F5F5F5F5F5F5F5F5F5F5F5F5F5F5F5E2E2EFF5F5F5F5F5F5F5F5F5F5F5F5F5F5F5F5F5F5F5F5E2E2E2E2E2E2E2E2E2E2E2E2E2E2E2E2E2E2E2E2E2E2E2E2E2E2E2E2E2E2E2E2E2E2E2E2E2E2E2E2E2E2E2E2E2E2E2
310
E2E2E2E2E2E2E2E2E2E2E2E2E2E2E2E2E2E2E2E2E2E2E2E2E2E2E2E2E2E2E2E2E2E2E2E2E2E2E2E2E2E2E2E2E2E2E2E2E2E2E2E2E2E2E2E2E2E2E2E2E2E2E2E2E2E2E2E2E2E2E2E2E2E2E2E2E2E2E2E2E2E2E2E2E2E2E2E2E2E2F5F5F5F5F5F5F5F5F5F5F5F5F5F5F5F5F5F5F5F5E2E2EFF5F5F5F5F5F5F5F5F5F5F5F5F5F5
310
F5F5F5F5F5F5E2F5F5F5F5F5F5F5F5F5F5F5F5F5F5F5F5F5F5F5F5F5F5F5F5F5F5F5F5F5F5F5F5F5F5F5F5F5F5F5F5F5F5F5F5F5F5F5F5F5F5F5F5F5F5F5F5F5F5F5F5F5F5F5F5F5F5F5F5F5F5F5F5F5F5F5F5F5F5F5F5F5F5F5F5F5F5F5F5F5F5F5F5F5F5F5F5F5F5F5F5F5F5F5F5F5F5F5F5F5F5F5F5F5F5F5F5F5F5F5F5
310
F5F5F5F5F5F5F5F5F5F5F5F5F5F5F5E2F5F5F5F5F5F5F5F5F5F5F5F5F5F5F5F5F5F5F5F5E2E2EFF5F5F5F5F5F5F5F5F5F5F5F5F5F5F5F5F5F5F5F5E2F5F5F5F5F5F5F5F5F5F5F5F5F5F5F5F5F5F5F5F5F5F5F5F5F5F5F5F5F5F5F5F5F5F5F5F5F5F5F5F5F5F5F5F5F5F5F5F5F5F5F5F5F5F5F5F5F5F5F5F5F5F5F5F5F5F5F5
310
F5F5F5F5F5F5F5F5F5F5F5F5F5F5F5F5F5F5F5F5F5F5F5F5F5F5F5F5F5F5F5F5F5F5F5F5F5F5F5F5F5F5F5F5F5F5F5F5F5F5F5F5F5F5F5F5F5F5F5F5F5F5F5F5F5F5F5F5E2F5F5F5F5F5F5F5F5F5F5F5F5F5F5F5F5F5F5F5F5E2E2EFF5F5F5F5F5F5F5F5F5F5F5F5F5F5F5F5F5F5F5F5E2F5F5F5F5F5F5F5F5F5F5F5F5F5F5
310
F5F5F5F5F5F5F5F5F5F5F5F5F5F5F5F5F5F5F5F5F5F5F5F5F5F5F5F5F5F5F5F5F5F5F5F5F5F5F5F5F5F5F5F5F5F5F5F5F5F5F5F5F5F5F5F5F5F5F5F5F5F5F5F5F5F5F5F5F5F5F5F5F5F5F5F5F5F5F5F5F5F5F5F5F5F5F5F5F5F5F5F5F5F5F5F5F5F5F5F5F5F5F5F5F5F5F5F5F5F5F5F5F5F5F5F5F5F5F5F5F5E2F5F5F5F5F5
310
F5F5F5F5F5F5F5F5F5F5F5F5F5F5F5E2E2EFF5F5F5F5F5F5F5F5F5F5F5F5F5F5F5F5F5F5F5F5E2F5F5F5F5F5F5F5F5F5F5F5F5F5F5F5F5F5F5F5F5F5F5F5F5F5F5F5F5F5F5F5F5F5F5F5F5F5F5F5F5F5F5F5F5F5F5F5F5F5F5F5F5F5F5F5F5F5F5F5F5F5F5F5F5F5F5F5F5F5F5F5F5F5F5F5F5F5F5F5F5F5F5F5F5F5F5F5F5
310
F5F5F5F5F5F5F5F5F5F5F5F5F5F5F5F5F5F5F5F5F5F5F5F5F5F5F5F5F5F5F5F5F5F5F5F5F5F5F5F5F5F5F5F5F5F5F5E2F5F5F5F5F5F5F5F5F5F5F5F5F5F5F5F5F5F5F5F5E2E2EFF5F5F5E2F5F5F5F5F5F5F5F5F5F5F5F5F5F5F5F5E2F5F5F5F5F5F5F5F5F5F5F5F5F5F5F5F5F5F5F5F5F5F5F5F5F5F5F5F5F5F5F5F5F5F5F5
310
F5F5F5F5F5F5F5F5F5F5F5F5F5F5F5F5F5F5F5F5F5F5F5F5F5F5F5F5F5F5F5F5F5F5F5F5F5F5F5F5F5F5F5F5F5F5F5F5F5F5F5F5F5F5F5F5F5F5F5F5F5F5F5F5F5F5F5F5F5F5F5F5F5F5F5F5F5F5F5F5F5F5F5F5F5F5F5F5F5F5F5F5F5F5F5F5F5F5F5F5E2F5F5F5F5F5F5F5F5F5F5F5F5F5F5F5F5E2F5F5F5E2E2EFF5F5F5
310
E2F5F5F5F5F5F5F5F5F5F5F5F5F5F5F5F5E2F5F5F5F5F5F5F5F5F5F5F5F5F5F5F5F5F5F5F5F5F5F5F5F5F5F5F5F5F5F5F5F5F5F5F5F5F5F5F5F5F5F5F5F5F5F5F5F5F5F5F5F5F5F5F5F5F5F5F5F5F5F5F5F5F5F5F5F5F5F5F5F5F5F5F5F5F5F5F5F5F5F5F5F5F5F5F5F5F5F5F5F5F5F5F5F5F5F5F5F5F5F5F5F5F5F5F5F5F5
310
F5F5F5F5F5F5F5F5F5F5F5F5F5F5F5F5F5F5F5F5F5F5F5F5F5F5E2F5F5F5F5F5F5F5F5F5F5F5F5F5F5F5F5E2F5F5F5E2E2EFF5F5F5E2F5F5F5F5F5F5F5F5F5F5F5F5F5F5F5F5E2F5F5F5F5F5F5F5F5F5F5F5F5F5F5F5F5F5F5F5F5F5F5F5F5F5F5F5F5F5F5F5F5F5F5F5F5F5F5F5F5F5F5F5F5F5F5F5F5F5F5F5F5F5F5F5F5
310
F5F5F5F5F5F5F5F5F5F5F5F5F5F5F5F5F5F5F5F5F5F5F5F5F5F5F5F5F5F5F5F5F5F5F5F5F5F5F5F5F5F5F5F5F5F5F5F5F5F5F5F5F5F5F5F5F5F5F5F5F5F5F5F5F5F5F5F5F5F5F5F5F5F5F5F5F5F5F5E2F5F5F5F5F5F5F5F5F5F5F5F5F5F5F5F5E2F5F5F5E2E2EFF5F5F5E2F5F5F5F5F5F5F5F5F5F5F5F5F5F5F5F5E2F5F5F5
310
F5F5F5F5F5F5F5F5F5F5F5F5F5F5F5F5F5F5F5F5F5F5F5F5F5F5F5F5F5F5F5F5F5F5F5F5F5F5F5F5F5F5F5F5F5F5F5F5F5F5F5F5F5F5F5F5F5F5F5F5F5F5F5F5F5F5F5F5F5F5F5F5F5F5F5F5F5F5F5F5F5F5F5F5F5F5F5F5F5F5F5F5F5F5F5F5F5F5F5F5F5F5F5F5F5F5F5F5F5F5F5F5F5F5F5F5F5F5F5F5F5F5F5F5F5F5F5
310
F5F5F5F5F5E2F5F5F5F5F5F5F5F5F5F5F5F5F5F5F5F5E2F5F5F5E2E2EFF5F5F5E2F5F5F5F5F5F5F5F5F5F5F5F5F5F5F5F5E2F5F5F5F5F5F5F5F5F5F5F5F5F5F5F5F5F5F5F5F5F5F5F5F5F5F5F5F5F5F5F5F5F5F5F5F5F5F5F5F5F5F5F5F5F5F5F5F5F5F5F5F5F5F5F5F5F5F5F5F5F5F5F5F5F5F5F5F5F5F5F5F5F5F5F5F5F5
310
F5F5F5F5F5F5F5F5F5F5F5F5F5F5F5F5F5F5F5F5F5F5F5F5F5F5F5F5F5F5F5F5F5F5F5F5F5F5F5F5F5F5F5F5F5F5F5F5F5F5F5F5F5F5F5F5F5F5E2F5F5F5F5F5F5F5F5F5F5F5F5F5F5F5F5E2F5F5F5E2E2EFF5F5F5E2F5F5F5F5F5F5F5F5F5F5F5F5F5F5F5F5E2F5F5F5F5F5F5F5F5F5F5F5F5F5F5F5F5F5F5F5F5F5F5F5F5
310
F5F5F5F5F5F5F5F5F5F5F5F5F5F5F5F5F5F5F5F5F5F5F5F5F5F5F5F5F5F5F5F5F5F5F5F5F5F5F5F5F5F5F5F5F5F5F5F5F5F5F5F5F5F5F5F5F5F5F5F5F5F5F5F5F5F5F5F5F5F5F5F5F5F5F5F5F5F5F5F5F5F5F5F5F5F5F5F5F5F5F5F5F5F5F5F5F5F5F5F5F5F5F5F5F5F5F5F5F5F5F5E2F5F5F5F5F5F5F5F5F5F5F5F5F5F5F5
310
F5E2F5F5F5E2E2EFF5F5F5E2F5F5F5F5F5F5F5F5F5F5F5F5F5F5F5F5E2F5F5F5F5F5F5F5F5F5F5F5F5F5F5F5F5F5F5F5F5F5F5F5F5F5F5F5F5F5F5F5F5F5F5F5F5F5F5F5F5F5F5F5F5F5F5F5F5F5F5F5F5F5F5F5F5F5F5F5F5F5F5F5F5F5F5F5F5F5F5F5F5F5F5F5F5F5F5F5F5F5F5F5F5F5F5F5F5F5F5F5F5F5F5F5F5F5F5
310
F5F5F5F5F5F5F5F5F5F5F5F5F5F5F5F5F5F5F5F5F5F5F5F5F5F5F5F5F5F5F5F5F5F5F5F5F5E2F5F5F5F5F5F5F5F5F5F5F5F5F5F5F5F5E2F5F5F5E2E2EFF5F5F5E2F5F5F5F5F5F5F5F5F5F5F5F5F5F5F5F5E2F5F5F5F5F5F5F5F5F5F5F5F5F5F5F5F5F5F5F5F5F5F5F5F5F5F5F5F5F5F5F5F5F5F5F5F5F5F5F5F5F5F5F5F5F5
310
F5F5F5F5F5F5F5F5F5F5F5F5F5F5F5F5F5F5F5F5F5F5F5F5F5F5F5F5F5F5F5F5F5F5F5F5F5F5F5F5F5F5F5F5F5F5F5F5F5F5F5F5F5F5F5F5F5F5F5F5F5F5F5F5F5F5F5F5F5F5F5F5F5F5F5F5F5F5F5F5F5F5F5F5F5F5F5F5F5F5E2F5F5F5F5F5F5F5F5F5F5F5F5F5F5F5F5E2F5F5F5E2E2EFF5F5F5E2F5F5F5F5F5F5F5F5F5
310
F5F5F5F5F5F5F5E2F5F5F5F5F5F5F5F5F5F5F5F5F5F5F5F5F5F5F5F5F5F5F5F5F5F5F5F5F5F5F5F5F5F5F5F5F5F5F5F5F5F5F5F5F5F5F5F5F5F5F5F5F5F5F5F5F5F5F5F5F5F5F5F5F5F5F5F5F5F5F5F5F5F5F5F5F5F5F5F5F5F5F5F5F5F5F5F5F5F5F5F5F5F5F5F5F5F5F5F5F5F5F5F5F5F5F5F5F5F5F5F5F5F5F5F5F5F5F5
310
F5F5F5F5F5F5F5F5F5F5F5F5F5F5F5F5E2F5F5F5F5F5F5F5F5F5F5F5F5F5F5F5F5E2F5F5F5E2E2EFF5F5F5E2F5F5F5F5F5F5F5F5F5F5F5F5F5F5F5F5E2F5F5F5F5F5F5F5F5F5F5F5F5F5F5F5F5F5F5F5F5F5F5F5F5F5F5F5F5F5F5F5F5F5F5F5F5F5F5F5F5F5F5F5F5F5F5F5F5F5F5F5F5F5F5F5F5F5F5F5F5F5F5F5F5F5F5
310
F5F5F5F5F5F5F5F5F5F5F5F5F5F5F5F5F5F5F5F5F5F5F5F5F5F5F5F5F5F5F5F5F5F5F5F5F5F5F5F5F5F5F5F5F5F5F5F5F5F5F5F5F5F5F5F5F5F5F5F5F5F5F5F5F5F5F5F5F5E2F5F5F5F5F5F5F5F5F5F5F5F5F5F5F5F5E2F5F5F5E2E2EFF5F5F5E2F5F5F5F5F5F5F5F5F5F5F5F5F5F5F5F5E2F5F5F5F5F5F5F5F5F5F5F5F5F5
310
F5F5F5F5F5F5F5F5F5F5F5F5F5F5F5F5F5F5F5F5F5F5F5F5F5F5F5F5F5F5F5F5F5F5F5F5F5F5F5F5F5F5F5F5F5F5F5F5F5F5F5F5F5F5F5F5F5F5F5F5F5F5F5F5F5F5F5F5F5F5F5F5F5F5F5F5F5F5F5F5F5F5F5F5F5F5F5F5F5F5F5F5F5F5F5F5F5F5F5F5F5F5F5F5F5F5F5F5F5F5F5F5F5F5F5F5F5F5F5F5F5F5E2F5F5F5F5
310
F5F5F5F5F5F5F5F5F5F5F5F5E2F5F5F5E2E2EFF5F5F5E2F5F5F5F5F5F5F5F5F5F5F5F5F5F5F5F5E2F5F5F5F5F5F5F5F5F5F5F5F5F5F5F5F5F5F5F5F5F5F5F5F5F5F5F5F5F5F5F5F5F5F5F5F5F5F5F5F5F5F5F5F5F5F5F5F5F5F5F5F5F5F5F5F5F5F5F5F5F5F5F5F5F5F5F5F5F5F5F5F5F5F5F5F5F5F5F5F5F5F5F5F5F5F5F5
310
F5F5F5F5F5F5F5F5F5F5F5F5F5F5F5F5F5F5F5F5F5F5F5F5F5F5F5F5F5F5F5F5F5F5F5F5F5F5F5F5F5F5F5F5F5F5F5F5E2F5F5F5F5F5F5F5F5F5F5F5F5F5F5F5F5E2F5F5F5E2E2EFF5F5F5E2F5F5F5F5F5F5F5F5F5F5F5F5F5F5F5F5E2F5F5F5F5F5F5F5F5F5F5F5F5F5F5F5F5F5F5F5F5F5F5F5F5F5F5F5F5F5F5F5F5F5F5
310
F5F5F5F5F5F5F5F5F5F5F5F5F5F5F5F5F5F5F5F5F5F5F5F5F5F5F5F5F5F5F5F5F5F5F5F5F5F5F5F5F5F5F5F5F5F5F5F5F5F5F5F5F5F5F5F5F5F5F5F5F5F5F5F5F5F5F5F5F5F5F5F5F5F5F5F5F5F5F5F5F5F5F5F5F5F5F5F5F5F5F5F5F5F5F5F5F5F5F5F5F5E2F5F5F5F5F5F5F5F5F5F5F5F5F5F5F5F5E2F5F5F5E2E2EFF5F5
310
F5E2F5F5F5F5F5F5F5F5F5F5F5F5F5F5F5F5E2F5F5F5F5F5F5F5F5F5F5F5F5F5F5F5F5F5F5F5F5F5F5F5F5F5F5F5F5F5F5F5F5F5F5F5F5F5F5F5F5F5F5F5F5F5F5F5F5F5F5F5F5F5F5F5F5F5F5F5F5F5F5F5F5F5F5F5F5F5F5F5F5F5F5F5F5F5F5F5F5F5F5F5F5F5F5F5F5F5F5F5F5F5F5F5F5F5F5F5F5F5F5F5F5F5F5F5F5
310
F5F5F5F5F5F5F5F5F5F5F5F5F5F5F5F5F5F5F5F5F5F5F5F5F5F5F5E2F5F5F5F5F5F5F5F5F5F5F5F5F5F5F5F5E2F5F5F5E2E2EFF5F5F5E2F5F5F5F5F5F5F5F5F5F5F5F5F5F5F5F5E2F5F5F5F5F5F5F5F5F5F5F5F5F5F5F5F5F5F5F5F5F5F5F5F5F5F5F5F5F5F5F5F5F5F5F5F5F5F5F5F5F5F5F5F5F5F5F5F5F5F5F5F5F5F5F5
310
F5F5F5F5F5F5F5F5F5F5F5F5F5F5F5F5F5F5F5F5F5F5F5F5F5F5F5F5F5F5F5F5F5F5F5F5F5F5F5F5F5F5F5F5F5F5F5F5F5F5F5F5F5F5F5F5F5F5F5F5F5F5F5F5F5F5F5F5F5F5F5F5F5F5F5F5F5F5F5F5E2F5F5F5F5F5F5F5F5F5F5F5F5F5F5F5F5E2F5F5F5E2E2EFF5F5F5E2F5F5F5F5F5F5F5F5F5F5F5F5F5F5F5F5E2F5F5
310
F5F5F5F5F5F5F5F5F5F5F5F5F5F5F5F5F5F5F5F5F5F5F5F5F5F5F5F5F5F5F5F5F5F5F5F5F5F5F5F5F5F5F5F5F5F5F5F5F5F5F5F5F5F5F5F5F5F5F5F5F5F5F5F5F5F5F5F5F5F5F5F5F5F5F5F5F5F5F5F5F5F5F5F5F5F5F5F5F5F5F5F5F5F5F5F5F5F5F5F5F5F5F5F5F5F5F5F5F5F5F5F5F5F5F5F5F5F5F5F5F5F5F5F5F5F5F5
310
F5F5F5F5F5F5E2F5F5F5F5F5F5F5F5F5F5F5F5F5F5F5F5E2F5F5F5E2E2EFF5F5F5E2F5F5F5F5F5F5F5F5F5F5F5F5F5F5F5F5E2F5F5F5F5F5F5F5F5F5F5F5F5F5F5F5F5F5F5F5F5F5F5F5F5F5F5F5F5F5F5F5F5F5F5F5F5F5F5F5F5F5F5F5F5F5F5F5F5F5F5F5F5F5F5F5F5F5F5F5F5F5F5F5F5F5F5F5F5F5F5F5F5F5F5F5F5
310
F5F5F5F5F5F5F5F5F5F5F5F5F5F5F5F5F5F5F5F5F5F5F5F5F5F5F5F5F5F5F5F5F5F5F5F5F5F5F5F5F5F5F5F5F5F5F5F5F5F5F5F5F5F5F5F5F5F5F5E2F5F5F5F5F5F5F5F5F5F5F5F5F5F5F5F5E2F5F5F5E2E2EFF5F5F5F5F5F5F5F5F5F5F5F5F5F5F5F5F5F5F5F5E2F5F5F5F5F5F5F5F5F5F5F5F5F5F5F5F5F5F5F5F5F5F5F5
310
F5F5F5F5F5F5F5F5F5F5F5F5F5F5F5F5F5F5F5F5F5F5F5F5F5F5F5F5F5F5F5F5F5F5F5F5F5F5F5F5F5F5F5F5F5F5F5F5F5F5F5F5F5F5F5F5F5F5F5F5F5F5F5F5F5F5F5F5F5F5F5F5F5F5F5F5F5F5F5F5F5F5F5F5F5F5F5F5F5F5F5F5F5F5F5F5F5F5F5F5F5F5F5F5F5F5F5F5F5F5F5F5E2F5F5F5F5F5F5F5F5F5F5F5F5F5F5
310
F5F5F5F5F5F5E2E2EFF5F5F5F5F5F5F5F5F5F5F5F5F5F5F5F5F5F5F5F5E2F5F5F5F5F5F5F5F5F5F5F5F5F5F5F5F5F5F5F5F5F5F5F5F5F5F5F5F5F5F5F5F5F5F5F5F5F5F5F5F5F5F5F5F5F5F5F5F5F5F5F5F5F5F5F5F5F5F5F5F5F5F5F5F5F5F5F5F5F5F5F5F5F5F5F5F5F5F5F5F5F5F5F5F5F5F5F5F5F5F5F5F5F5F5F5F5F5
310
F5F5F5F5F5F5F5F5F5F5F5F5F5F5F5F5F5F5F5F5F5F5F5F5F5F5F5F5F5F5F5F5F5F5F5F5F5F5E2F5F5F5F5F5F5F5F5F5F5F5F5F5F5F5F5F5F5F5F5E2E2EFF5F5F5F5F5F5F5F5F5F5F5F5F5F5F5F5F5F5F5F5E2F5F5F5F5F5F5F5F5F5F5F5F5F5F5F5F5F5F5F5F5F5F5F5F5F5F5F5F5F5F5F5F5F5F5F5F5F5F5F5F5F5F5F5F5
310
F5F5F5F5F5F5F5F5F5F5F5F5F5F5F5F5F5F5F5F5F5F5F5F5F5F5F5F5F5F5F5F5F5F5F5F5F5F5F5F5F5F5F5F5F5F5F5F5F5F5F5F5F5F5F5F5F5F5F5F5F5F5F5F5F5F5F5F5F5F5F5F5F5F5F5F5F5F5F5F5F5F5F5F5F5F5F5F5F5F5F5E2F5F5F5F5F5F5F5F5F5F5F5F5F5F5F5F5F5F5F5F5E2E2EFF5F5F5F5F5F5F5F5F5F5F5F5
310
F5F5F5F5F5F5F5F5E2F5F5F5F5F5F5F5F5F5F5F5F5F5F5F5F5F5F5F5F5F5F5F5F5F5F5F5F5F5F5F5F5F5F5F5F5F5F5F5F5F5F5F5F5F5F5F5F5F5F5F5F5F5F5F5F5F5F5F5F5F5F5F5F5F5F5F5F5F5F5F5F5F5F5F5F5F5F5F5F5F5F5F5F5F5F5F5F5F5F5F5F5F5F5F5F5F5F5F5F5F5F5F5F5F5F5F5F5F5F5F5F5F5F5F5F5F5F5
310
F5F5F5F5F5F5F5F5F5F5F5F5F5F5F5F5F5E2F5F5F5F5F5F5F5F5F5F5F5F5F5F5F5F5F5F5F5F5E2E2EFF5F5F5F5F5F5F5F5F5F5F5F5F5F5F5F5F5F5F5F5E2F5F5F5F5F5F5F5F5F5F5F5F5F5F5F5F5F5F5F5F5F5F5F5F5F5F5F5F5F5F5F5F5F5F5F5F5F5F5F5F5F5F5F5F5F5F5F5F5F5F5F5F5F5F5F5F5F5F5F5F5F5F5F5F5F5
310
F5F5F5F5F5F5F5F5F5F5F5F5F5F5F5F5F5F5F5F5F5F5F5F5F5F5F5F5F5F5F5F5F5F5F5F5F5F5F5F5F5F5F5F5F5F5F5F5F5F5F5F5F5F5F5F5F5F5F5F5F5F5F5F5F5F5F5F5F5F5E2F5F5F5F5F5F5F5F5F5F5F5F5F5F5F5F5F5F5F5F5E2E2EFF5F5F5F5F5F5F5F5F5F5F5F5F5F5F5F5F5F5F5F5E2F5F5F5F5F5F5F5F5F5F5F5F5
310
F5F5F5F5F5F5F5F5F5F5F5F5F5F5F5F5F5F5F5F5F5F5F5F5F5F5F5F5F5F5F5F5F5F5F5F5F5F5F5F5F5F5F5F5F5F5F5F5F5F5F5F5F5F5F5F5F5F5F5F5F5F5F5F5F5F5F5F5F5F5F5F5F5F5F5F5F5F5F5F5F5F5F5F5F5F5F5F5F5F5F5F5F5F5F5F5F5F5F5F5F5F5F5F5F5F5F5F5F5F5F5F5F5F5F5F5F5F5F5F5F5F5F5E2F5F5F5
310
F5F5F5F5F5F5F5F5F5F5F5F5F5F5F5F5F5E2E2EFF5F5F5F5F5F5F5F5F5F5F5F5F5F5F5F5F5F5F5F5E2F5F5F5F5F5F5F5F5F5F5F5F5F5F5F5F5F5F5F5F5F5F5F5F5F5F5F5F5F5F5F5F5F5F5F5F5F5F5F5F5F5F5F5F5F5F5F5F5F5F5F5F5F5F5F5F5F5F5F5F5F5F5F5F5F5F5F5F5F5F5F5F5F5F5F5F5F5F5F5F5F5F5F5F5F5F5
310
F5F5F5F5F5F5F5F5F5F5F5F5F5F5F5F5F5F5F5F5F5F5F5F5F5F5F5F5F5F5F5F5F5F5F5F5F5F5F5F5F5F5F5F5F5F5F5F5F5E2F5F5F5F5F5F5F5F5F5F5F5F5F5F5F5F5F5F5F5F5E2E2EFF5F5F5F5F5F5F5F5F5F5F5F5F5F5F5F5F5F5F5F5E2F5F5F5F5F5F5F5F5F5F5F5F5F5F5F5F5F5F5F5F5F5F5F5F5F5F5F5F5F5F5F5F5F5
310
F5F5F5F5F5F5F5F5F5F5F5F5F5F5F5F5F5F5F5F5F5F5F5F5F5F5F5F5F5F5F5F5F5F5F5F5F5F5F5F5F5F5F5F5F5F5F5F5F5F5F5F5F5F5F5F5F5F5F5F5F5F5F5F5F5F5F5F5F5F5F5F5F5F5F5F5F5F5F5F5F5F5F5F5F5F5F5F5F5F5F5F5F5F5F5F5F5F5F5F5F5F5E2F5F5F5F5F5F5F5F5F5F5F5F5F5F5F5F5F5F5F5F5E2E2EFF5
310
F5F5F5F5F5F5F5F5F5F5F5F5F5F5F5F5F5F5F5E2F5F5F5F5F5F5F5F5F5F5F5F5F5F5F5F5F5F5F5F5F5F5F5F5F5F5F5F5F5F5F5F5F5F5F5F5F5F5F5F5F5F5F5F5F5F5F5F5F5F5F5F5F5F5F5F5F5F5F5F5F5F5F5F5F5F5F5F5F5F5F5F5F5F5F5F5F5F5F5F5F5F5F5F5F5F5F5F5F5F5F5F5F5F5F5F5F5F5F5F5F5F5F5F5F5F5F5
310
F5F5F5F5F5F5F5F5F5F5F5F5F5F5F5F5F5F5F5F5F5F5F5F5F5F5F5F5E2F5F5F5F5F5F5F5F5F5F5F5F5F5F5F5F5F5F5F5F5E2E2EFF5F5F5E2F5F5F5F5F5F5F5F5F5F5F5F5F5F5F5F5E2F5F5F5F5F5F5F5F5F5F5F5F5F5F5F5F5F5F5F5F5F5F5F5F5F5F5F5F5F5F5F5F5F5F5F5F5F5F5F5F5F5F5F5F5F5F5F5F5F5F5F5F5F5F5
310
F5F5F5F5F5F5F5F5F5F5F5F5F5F5F5F5F5F5F5F5F5F5F5F5F5F5F5F5F5F5F5F5F5F5F5F5F5F5F5F5F5F5F5F5F5F5F5F5F5F5F5F5F5F5F5F5F5F5F5F5F5F5F5F5F5F5F5F5F5F5F5F5F5F5F5F5F5F5F5F5F5E2F5F5F5F5F5F5F5F5F5F5F5F5F5F5F5F5E2F5F5F5E2E2EFF5F5F5E2F5F5F5F5F5F5F5F5F5F5F5F5F5F5F5F5E2F5
310
F5F5F5F5F5F5F5F5F5F5F5F5F5F5F5F5F5F5F5F5F5F5F5F5F5F5F5F5F5F5F5F5F5F5F5F5F5F5F5F5F5F5F5F5F5F5F5F5F5F5F5F5F5F5F5F5F5F5F5F5F5F5F5F5F5F5F5F5F5F5F5F5F5F5F5F5F5F5F5F5F5F5F5F5F5F5F5F5F5F5F5F5F5F5F5F5F5F5F5F5F5F5F5F5F5F5F5F5F5F5F5F5F5F5F5F5F5F5F5F5F5F5F5F5F5F5F5
310
F5F5F5F5F5F5F5E2F5F5F5F5F5F5F5F5F5F5F5F5F5F5F5F5E2F5F5F5E2E2EFF5F5F5E2F5F5F5F5F5F5F5F5F5F5F5F5F5F5F5F5E2F5F5F5F5F5F5F5F5F5F5F5F5F5F5F5F5F5F5F5F5F5F5F5F5F5F5F5F5F5F5F5F5F5F5F5F5F5F5F5F5F5F5F5F5F5F5F5F5F5F5F5F5F5F5F5F5F5F5F5F5F5F5F5F5F5F5F5F5F5F5F5F5F5F5F5
310
F5F5F5F5F5F5F5F5F5F5F5F5F5F5F5F5F5F5F5F5F5F5F5F5F5F5F5F5F5F5F5F5F5F5F5F5F5F5F5F5F5F5F5F5F5F5F5F5F5F5F5F5F5F5F5F5F5F5F5F5E2F5F5F5F5F5F5F5F5F5F5F5F5F5F5F5F5E2F5F5F5E2E2EFF5F5F5E2F5F5F5F5F5F5F5F5F5F5F5F5F5F5F5F5E2F5F5F5F5F5F5F5F5F5F5F5F5F5F5F5F5F5F5F5F5F5F5
310
F5F5F5F5F5F5F5F5F5F5F5F5F5F5F5F5F5F5F5F5F5F5F5F5F5F5F5F5F5F5F5F5F5F5F5F5F5F5F5F5F5F5F5F5F5F5F5F5F5F5F5F5F5F5F5F5F5F5F5F5F5F5F5F5F5F5F5F5F5F5F5F5F5F5F5F5F5F5F5F5F5F5F5F5F5F5F5F5F5F5F5F5F5F5F5F5F5F5F5F5F5F5F5F5F5F5F5F5F5F5F5F5F5E2F5F5F5F5F5F5F5F5F5F5F5F5F5
310
F5F5F5E2F5F5F5E2E2EFF5F5F5E2F5F5F5F5F5F5F5F5F5F5F5F5F5F5F5F5E2F5F5F5F5F5F5F5F5F5F5F5F5F5F5F5F5F5F5F5F5F5F5F5F5F5F5F5F5F5F5F5F5F5F5F5F5F5F5F5F5F5F5F5F5F5F5F5F5F5F5F5F5F5F5F5F5F5F5F5F5F5F5F5F5F5F5F5F5F5F5F5F5F5F5F5F5F5F5F5F5F5F5F5F5F5F5F5F5F5F5F5F5F5F5F5F5
310
F5F5F5F5F5F5F5F5F5F5F5F5F5F5F5F5F5F5F5F5F5F5F5F5F5F5F5F5F5F5F5F5F5F5F5F5F5F5F5E2F5F5F5F5F5F5F5F5F5F5F5F5F5F5F5F5E2F5F5F5E2E2EFF5F5F5E2F5F5F5F5F5F5F5F5F5F5F5F5F5F5F5F5E2F5F5F5F5F5F5F5F5F5F5F5F5F5F5F5F5F5F5F5F5F5F5F5F5F5F5F5F5F5F5F5F5F5F5F5F5F5F5F5F5F5F5F5
310
F5F5F5F5F5F5F5F5F5F5F5F5F5F5F5F5F5F5F5F5F5F5F5F5F5F5F5F5F5F5F5F5F5F5F5F5F5F5F5F5F5F5F5F5F5F5F5F5F5F5F5F5F5F5F5F5F5F5F5F5F5F5F5F5F5F5F5F5F5F5F5F5F5F5F5F5F5F5F5F5F5F5F5F5F5F5F5F5F5F5F5F5E2F5F5F5F5F5F5F5F5F5F5F5F5F5F5F5F5E2F5F5F5E2E2EFF5F5F5E2F5F5F5F5F5F5F5
310
F5F5F5F5F5F5F5F5F5E2F5F5F5F5F5F5F5F5F5F5F5F5F5F5F5F5F5F5F5F5F5F5F5F5F5F5F5F5F5F5F5F5F5F5F5F5F5F5F5F5F5F5F5F5F5F5F5F5F5F5F5F5F5F5F5F5F5F5F5F5F5F5F5F5F5F5F5F5F5F5F5F5F5F5F5F5F5F5F5F5F5F5F5F5F5F5F5F5F5F5F5F5F5F5F5F5F5F5F5F5F5F5F5F5F5F5F5F5F5F5F5F5F5F5F5F5F5
310
F5F5F5F5F5F5F5F5F5F5F5F5F5F5F5F5F5F5E2F5F5F5F5F5F5F5F5F5F5F5F5F5F5F5F5E2F5F5F5E2E2EFF5F5F5E2F5F5F5F5F5F5F5F5F5F5F5F5F5F5F5F5E2F5F5F5F5F5F5F5F5F5F5F5F5F5F5F5F5F5F5F5F5F5F5F5F5F5F5F5F5F5F5F5F5F5F5F5F5F5F5F5F5F5F5F5F5F5F5F5F5F5F5F5F5F5F5F5F5F5F5F5F5F5F5F5F5
310
F5F5F5F5F5F5F5F5F5F5F5F5F5F5F5F5F5F5F5F5F5F5F5F5F5F5F5F5F5F5F5F5F5F5F5F5F5F5F5F5F5F5F5F5F5F5F5F5F5F5F5F5F5F5F5F5F5F5F5F5F5F5F5F5F5F5F5F5F5F5F5E2F5F5F5F5F5F5F5F5F5F5F5F5F5F5F5F5E2F5F5F5E2E2EFF5F5F5E2F5F5F5F5F5F5F5F5F5F5F5F5F5F5F5F5E2F5F5F5F5F5F5F5F5F5F5F5
310
F5F5F5F5F5F5F5F5F5F5F5F5F5F5F5F5F5F5F5F5F5F5F5F5F5F5F5F5F5F5F5F5F5F5F5F5F5F5F5F5F5F5F5F5F5F5F5F5F5F5F5F5F5F5F5F5F5F5F5F5F5F5F5F5F5F5F5F5F5F5F5F5F5F5F5F5F5F5F5F5F5F5F5F5F5F5F5F5F5F5F5F5F5F5F5F5F5F5F5F5F5F5F5F5F5F5F5F5F5F5F5F5F5F5F5F5F5F5F5F5F5F5F5F5E2F5F5
310
F5F5F5F5F5F5F5F5F5F5F5F5F5F5E2F5F5F5E2E2EFF5F5F5E2F5F5F5F5F5F5F5F5F5F5F5F5F5F5F5F5E2F5F5F5F5F5F5F5F5F5F5F5F5F5F5F5F5F5F5F5F5F5F5F5F5F5F5F5F5F5F5F5F5F5F5F5F5F5F5F5F5F5F5F5F5F5F5F5F5F5F5F5F5F5F5F5F5F5F5F5F5F5F5F5F5F5F5F5F5F5F5F5F5F5F5F5F5F5F5F5F5F5F5F5F5F5
310
F5F5F5F5F5F5F5F5F5F5F5F5F5F5F5F5F5F5F5F5F5F5F5F5F5F5F5F5F5F5F5F5F5F5F5F5F5F5F5F5F5F5F5F5F5F5F5F5F5F5E2F5F5F5F5F5F5F5F5F5F5F5F5F5F5F5F5E2F5F5F5E2E2EFF5F5F5E2F5F5F5F5F5F5F5F5F5F5F5F5F5F5F5F5E2F5F5F5F5F5F5F5F5F5F5F5F5F5F5F5F5F5F5F5F5F5F5F5F5F5F5F5F5F5F5F5F5
310
F5F5F5F5F5F5F5F5F5F5F5F5F5F5F5F5F5F5F5F5F5F5F5F5F5F5F5F5F5F5F5F5F5F5F5F5F5F5F5F5F5F5F5F5F5F5F5F5F5F5F5F5F5F5F5F5F5F5F5F5F5F5F5F5F5F5F5F5F5F5F5F5F5F5F5F5F5F5F5F5F5F5F5F5F5F5F5F5F5F5F5F5F5F5F5F5F5F5F5F5F5F5F5E2F5F5F5F5F5F5F5F5F5F5F5F5F5F5F5F5E2F5F5F5E2E2EF
310
F5F5F5E2F5F5F5F5F5F5F5F5F5F5F5F5F5F5F5F5E2F5F5F5F5F5F5F5F5F5F5F5F5F5F5F5F5F5F5F5F5F5F5F5F5F5F5F5F5F5F5F5F5F5F5F5F5F5F5F5F5F5F5F5F5F5F5F5F5F5F5F5F5F5F5F5F5F5F5F5F5F5F5F5F5F5F5F5F5F5F5F5F5F5F5F5F5F5F5F5F5F5F5F5F5F5F5F5F5F5F5F5F5F5F5F5F5F5F5F5F5F5F5F5F5F5F5
310
F5F5F5F5F5F5F5F5F5F5F5F5F5F5F5F5F5F5F5F5F5F5F5F5F5F5F5F5F5E2F5F5F5F5F5F5F5F5F5F5F5F5F5F5F5F5E2F5F5F5E2E2EFF5F5F5E2F5F5F5F5F5F5F5F5F5F5F5F5F5F5F5F5E2F5F5F5F5F5F5F5F5F5F5F5F5F5F5F5F5F5F5F5F5F5F5F5F5F5F5F5F5F5F5F5F5F5F5F5F5F5F5F5F5F5F5F5F5F5F5F5F5F5F5F5F5F5
310
F5F5F5F5F5F5F5F5F5F5F5F5F5F5F5F5F5F5F5F5F5F5F5F5F5F5F5F5F5F5F5F5F5F5F5F5F5F5F5F5F5F5F5F5F5F5F5F5F5F5F5F5F5F5F5F5F5F5F5F5F5F5F5F5F5F5F5F5F5F5F5F5F5F5F5F5F5F5F5F5F5F5E2F5F5F5F5F5F5F5F5F5F5F5F5F5F5F5F5E2F5F5F5E2E2EFF5F5F5E2F5F5F5F5F5F5F5F5F5F5F5F5F5F5F5F5E2
310
F5F5F5F5F5F5F5F5F5F5F5F5F5F5F5F5F5F5F5F5F5F5F5F5F5F5F5F5F5F5F5F5F5F5F5F5F5F5F5F5F5F5F5F5F5F5F5F5F5F5F5F5F5F5F5F5F5F5F5F5F5F5F5F5F5F5F5F5F5F5F5F5F5F5F5F5F5F5F5F5F5F5F5F5F5F5F5F5F5F5F5F5F5F5F5F5F5F5F5F5F5F5F5F5F5F5F5F5F5F5F5F5F5F5F5F5F5F5F5F5F5F5F5F5F5F5F5
310
F5F5F5F5F5F5F5F5E2F5F5F5F5F5F5F5F5F5F5F5F5F5F5F5F5E2F5F5F5E2E2EFF5F5F5E2F5F5F5F5F5F5F5F5F5F5F5F5F5F5F5F5E2F5F5F5F5F5F5F5F5F5F5F5F5F5F5F5F5F5F5F5F5F5F5F5F5F5F5F5F5F5F5F5F5F5F5F5F5F5F5F5F5F5F5F5F5F5F5F5F5F5F5F5F5F5F5F5F5F5F5F5F5F5F5F5F5F5F5F5F5F5F5F5F5F5F5
310
F5F5F5F5F5F5F5F5F5F5F5F5F5F5F5F5F5F5F5F5F5F5F5F5F5F5F5F5F5F5F5F5F5F5F5F5F5F5F5F5F5F5F5F5F5F5F5F5F5F5F5F5F5F5F5F5F5F5F5F5F5E2F5F5F5F5F5F5F5F5F5F5F5F5F5F5F5F5E2F5F5F5E2E2EFF5F5F5E2F5F5F5F5F5F5F5F5F5F5F5F5F5F5F5F5E2F5F5F5F5F5F5F5F5F5F5F5F5F5F5F5F5F5F5F5F5F5
310
F5F5F5F5F5F5F5F5F5F5F5F5F5F5F5F5F5F5F5F5F5F5F5F5F5F5F5F5F5F5F5F5F5F5F5F5F5F5F5F5F5F5F5F5F5F5F5F5F5F5F5F5F5F5F5F5F5F5F5F5F5F5F5F5F5F5F5F5F5F5F5F5F5F5F5F5F5F5F5F5F5F5F5F5F5F5F5F5F5F5F5F5F5F5F5F5F5F5F5F5F5F5F5F5F5F5F5F5F5F5F5F5F5F5E2F5F5F5F5F5F5F5F5F5F5F5F5
310
F5F5F5F5E2F5F5F5E2E2EFF5F5F5E2F5F5F5F5F5F5F5F5F5F5F5F5F5F5F5F5E2F5F5F5F5F5F5F5F5F5F5F5F5F5F5F5F5F5F5F5F5F5F5F5F5F5F5F5F5F5F5F5F5F5F5F5F5F5F5F5F5F5F5F5F5F5F5F5F5F5F5F5F5F5F5F5F5F5F5F5F5F5F5F5F5F5F5F5F5F5F5F5F5F5F5F5F5F5F5F5F5F5F5F5F5F5F5F5F5F5F5F5F5F5F5F5
310
F5F5F5F5F5F5F5F5F5F5F5F5F5F5F5F5F5F5F5F5F5F5F5F5F5F5F5F5F5F5F5F5F5F5F5F5F5F5F5F5E2F5F5F5F5F5F5F5F5F5F5F5F5F5F5F5F5E2F5F5F5E2E2EFF5F5F5F5F5F5F5F5F5F5F5F5F5F5F5F5F5F5F5F5E2F5F5F5F5F5F5F5F5F5F5F5F5F5F5F5F5F5F5F5F5F5F5F5F5F5F5F5F5F5F5F5F5F5F5F5F5F5F5F5F5F5F5
310
F5F5F5F5F5F5F5F5F5F5F5F5F5F5F5F5F5F5F5F5F5F5F5F5F5F5F5F5F5F5F5F5F5F5F5F5F5F5F5F5F5F5F5F5F5F5F5F5F5F5F5F5F5F5F5F5F5F5F5F5F5F5F5F5F5F5F5F5F5F5F5F5F5F5F5F5F5F5F5F5F5F5F5F5F5F5F5F5F5F5F5F5F5E2F5F5F5F5F5F5F5F5F5F5F5F5F5F5F5F5F5F5F5F5E2E2EFF5F5F5F5F5F5F5F5F5F5
310
F5F5F5F5F5F5F5F5F5F5E2F5F5F5F5F5F5F5F5F5F5F5F5F5F5F5F5F5F5F5F5F5F5F5F5F5F5F5F5F5F5F5F5F5F5F5F5F5F5F5F5F5F5F5F5F5F5F5F5F5F5F5F5F5F5F5F5F5F5F5F5F5F5F5F5F5F5F5F5F5F5F5F5F5F5F5F5F5F5F5F5F5F5F5F5F5F5F5F5F5F5F5F5F5F5F5F5F5F5F5F5F5F5F5F5F5F5F5F5F5F5F5F5F5F5F5F5
310
F5F5F5F5F5F5F5F5F5F5F5F5F5F5F5F5F5F5F5E2F5F5F5F5F5F5F5F5F5F5F5F5F5F5F5F5F5F5F5F5E2E2EFF5F5F5F5F5F5F5F5F5F5F5F5F5F5F5F5F5F5F5F5E2F5F5F5F5F5F5F5F5F5F5F5F5F5F5F5F5F5F5F5F5F5F5F5F5F5F5F5F5F5F5F5F5F5F5F5F5F5F5F5F5F5F5F5F5F5F5F5F5F5F5F5F5F5F5F5F5F5F5F5F5F5F5F5
310
F5F5F5F5F5F5F5F5F5F5F5F5F5F5F5F5F5F5F5F5F5F5F5F5F5F5F5F5F5F5F5F5F5F5F5F5F5F5F5F5F5F5F5F5F5F5F5F5F5F5F5F5F5F5F5F5F5F5F5F5F5F5F5F5F5F5F5F5F5F5F5F5E2F5F5F5F5F5F5F5F5F5F5F5F5F5F5F5F5F5F5F5F5E2E2EFF5F5F5F5F5F5F5F5F5F5F5F5F5F5F5F5F5F5F5F5E2F5F5F5F5F5F5F5F5F5F5
310
F5F5F5F5F5F5F5F5F5F5F5F5F5F5F5F5F5F5F5F5F5F5F5F5F5F5F5F5F5F5F5F5F5F5F5F5F5F5F5F5F5F5F5F5F5F5F5F5F5F5F5F5F5F5F5F5F5F5F5F5F5F5F5F5F5F5F5F5F5F5F5F5F5F5F5F5F5F5F5F5F5F5F5F5F5F5F5F5F5F5F5F5F5F5F5F5F5F5F5F5F5F5F5F5F5F5F5F5F5F5F5F5F5F5F5F5F5F5F5F5F5F5F5F5F5E2F5
310
F5F5F5F5F5F5F5F5F5F5F5F5F5F5F5F5F5F5F5E2E2EFF5F5F5F5F5F5F5F5F5F5F5F5F5F5F5F5F5F5F5F5E2F5F5F5F5F5F5F5F5F5F5F5F5F5F5F5F5F5F5F5F5F5F5F5F5F5F5F5F5F5F5F5F5F5F5F5F5F5F5F5F5F5F5F5F5F5F5F5F5F5F5F5F5F5F5F5F5F5F5F5F5F5F5F5F5F5F5F5F5F5F5F5F5F5F5F5F5F5F5F5F5F5F5F5F5
310
F5F5F5F5F5F5F5F5F5F5F5F5F5F5F5F5F5F5F5F5F5F5F5F5F5F5F5F5F5F5F5F5F5F5F5F5F5F5F5F5F5F5F5F5F5F5F5F5F5F5F5E2F5F5F5F5F5F5F5F5F5F5F5F5F5F5F5F5F5F5F5F5E2E2EFF5F5F5F5F5F5F5F5F5F5F5F5F5F5F5F5F5F5F5F5E2F5F5F5F5F5F5F5F5F5F5F5F5F5F5F5F5F5F5F5F5F5F5F5F5F5F5F5F5F5F5F5
310
F5F5F5F5F5F5F5F5F5F5F5F5F5F5F5F5F5F5F5F5F5F5F5F5F5F5F5F5F5F5F5F5F5F5F5F5F5F5F5F5F5F5F5F5F5F5F5F5F5F5F5F5F5F5F5F5F5F5F5F5F5F5F5F5F5F5F5F5F5F5F5F5F5F5F5F5F5F5F5F5F5F5F5F5F5F5F5F5F5F5F5F5F5F5F5F5F5F5F5F5F5F5F5F5E2F5F5F5F5F5F5F5F5F5F5F5F5F5F5F5F5F5F5F5F5E2E2
310
EFF5F5F5F5F5F5F5F5F5F5F5F5F5F5F5F5F5F5F5F5E2F5F5F5F5F5F5F5F5F5F5F5F5F5F5F5F5F5F5F5F5F5F5F5F5F5F5F5F5F5F5F5F5F5F5F5F5F5F5F5F5F5F5F5F5F5F5F5F5F5F5F5F5F5F5F5F5F5F5F5F5F5F5F5F5F5F5F5F5F5F5F5F5F5F5F5F5F5F5F5F5F5F5F5F5F5F5F5F5F5F5F5F5F5F5F5F5F5F5F5F5F5F5F5F5F5
310
F5F5F5F5F5F5F5F5F5F5F5F5F5F5F5F5F5F5F5F5F5F5F5F5F5F5F5F5F5F5E2F5F5F5F5F5F5F5F5F5F5F5F5F5F5F5F5F5F5F5F5E2E2EFF5F5F5F5F5F5F5F5F5F5F5F5F5F5F5F5F5F5F5F5E2F5F5F5F5F5F5F5F5F5F5F5F5F5F5F5F5F5F5F5F5F5F5F5F5F5F5F5F5F5F5F5F5F5F5F5F5F5F5F5F5F5F5F5F5F5F5F5F5F5F5F5F5
310
F5F5F5F5F5F5F5F5F5F5F5F5F5F5F5F5F5F5F5F5F5F5F5F5F5F5F5F5F5F5F5F5F5F5F5F5F5F5F5F5F5F5F5F5F5F5F5F5F5F5F5F5F5F5F5F5F5F5F5F5F5F5F5F5F5F5F5F5F5F5F5F5F5F5F5F5F5F5F5F5F5F5F5E2F5F5F5F5F5F5F5F5F5F5F5F5F5F5F5F5F5F5F5F5E2E2EFF5F5F5F5F5F5F5F5F5F5F5F5F5F5F5F5F5F5F5F5
310
E2F5F5F5F5F5F5F5F5F5F5F5F5F5F5F5F5F5F5F5F5F5F5F5F5F5F5F5F5F5F5F5F5F5F5F5F5F5F5F5F5F5F5F5F5F5F5F5F5F5F5F5F5F5F5F5F5F5F5F5F5F5F5F5F5F5F5F5F5F5F5F5F5F5F5F5F5F5F5F5F5F5F5F5F5F5F5F5F5F5F5F5F5F5F5F5F5F5F5F5F5F5F5F5F5F5F5F5F5F5F5F5F5F5F5F5F5F5F5F5F5F5F5F5F5F5F5
310
F5F5F5F5F5F5F5F5F5E2F5F5F5F5F5F5F5F5F5F5F5F5F5F5F5F5F5F5F5F5E2E2EFF5F5F5E2F5F5F5F5F5F5F5F5F5F5F5F5F5F5F5F5E2F5F5F5F5F5F5F5F5F5F5F5F5F5F5F5F5F5F5F5F5F5F5F5F5F5F5F5F5F5F5F5F5F5F5F5F5F5F5F5F5F5F5F5F5F5F5F5F5F5F5F5F5F5F5F5F5F5F5F5F5F5F5F5F5F5F5F5F5F5F5F5F5F5
310
F5F5F5F5F5F5F5F5F5F5F5F5F5F5F5F5F5F5F5F5F5F5F5F5F5F5F5F5F5F5F5F5F5F5F5F5F5F5F5F5F5F5F5F5F5F5F5F5F5F5F5F5F5F5F5F5F5F5F5F5F5F5E2F5F5F5F5F5F5F5F5F5F5F5F5F5F5F5F5E2F5F5F5E2E2EFF5F5F5E2F5F5F5F5F5F5F5F5F5F5F5F5F5F5F5F5E2F5F5F5F5F5F5F5F5F5F5F5F5F5F5F5F5F5F5F5F5
310
F5F5F5F5F5F5F5F5F5F5F5F5F5F5F5F5F5F5F5F5F5F5F5F5F5F5F5F5F5F5F5F5F5F5F5F5F5F5F5F5F5F5F5F5F5F5F5F5F5F5F5F5F5F5F5F5F5F5F5F5F5F5F5F5F5F5F5F5F5F5F5F5F5F5F5F5F5F5F5F5F5F5F5F5F5F5F5F5F5F5F5F5F5F5F5F5F5F5F5F5F5F5F5F5F5F5F5F5F5F5F5F5F5F5F5E2F5F5F5F5F5F5F5F5F5F5F5
310
F5F5F5F5F5E2F5F5F5E2E2EFF5F5F5E2F5F5F5F5F5F5F5F5F5F5F5F5F5F5F5F5E2F5F5F5F5F5F5F5F5F5F5F5F5F5F5F5F5F5F5F5F5F5F5F5F5F5F5F5F5F5F5F5F5F5F5F5F5F5F5F5F5F5F5F5F5F5F5F5F5F5F5F5F5F5F5F5F5F5F5F5F5F5F5F5F5F5F5F5F5F5F5F5F5F5F5F5F5F5F5F5F5F5F5F5F5F5F5F5F5F5F5F5F5F5F5
310
F5F5F5F5F5F5F5F5F5F5F5F5F5F5F5F5F5F5F5F5F5F5F5F5F5F5F5F5F5F5F5F5F5F5F5F5F5F5F5F5F5E2F5F5F5F5F5F5F5F5F5F5F5F5F5F5F5F5E2F5F5F5E2E2EFF5F5F5E2F5F5F5F5F5F5F5F5F5F5F5F5F5F5F5F5E2F5F5F5F5F5F5F5F5F5F5F5F5F5F5F5F5F5F5F5F5F5F5F5F5F5F5F5F5F5F5F5F5F5F5F5F5F5F5F5F5F5
310
F5F5F5F5F5F5F5F5F5F5F5F5F5F5F5F5F5F5F5F5F5F5F5F5F5F5F5F5F5F5F5F5F5F5F5F5F5F5F5F5F5F5F5F5F5F5F5F5F5F5F5F5F5F5F5F5F5F5F5F5F5F5F5F5F5F5F5F5F5F5F5F5F5F5F5F5F5F5F5F5F5F5F5F5F5F5F5F5F5F5F5F5F5F5E2F5F5F5F5F5F5F5F5F5F5F5F5F5F5F5F5E2F5F5F5E2E2EFF5F5F5E2F5F5F5F5F5
310
F5F5F5F5F5F5F5F5F5F5F5E2F5F5F5F5F5F5F5F5F5F5F5F5F5F5F5F5F5F5F5F5F5F5F5F5F5F5F5F5F5F5F5F5F5F5F5F5F5F5F5F5F5F5F5F5F5F5F5F5F5F5F5F5F5F5F5F5F5F5F5F5F5F5F5F5F5F5F5F5F5F5F5F5F5F5F5F5F5F5F5F5F5F5F5F5F5F5F5F5F5F5F5F5F5F5F5F5F5F5F5F5F5F5F5F5F5F5F5F5F5F5F5F5F5F5F5
310
F5F5F5F5F5F5F5F5F5F5F5F5F5F5F5F5F5F5F5F5E2F5F5F5F5F5F5F5F5F5F5F5F5F5F5F5F5E2F5F5F5E2E2EFF5F5F5E2F5F5F5F5F5F5F5F5F5F5F5F5F5F5F5F5E2F5F5F5F5F5F5F5F5F5F5F5F5F5F5F5F5F5F5F5F5F5F5F5F5F5F5F5F5F5F5F5F5F5F5F5F5F5F5F5F5F5F5F5F5F5F5F5F5F5F5F5F5F5F5F5F5F5F5F5F5F5F5
310
F5F5F5F5F5F5F5F5F5F5F5F5F5F5F5F5F5F5F5F5F5F5F5F5F5F5F5F5F5F5F5F5F5F5F5F5F5F5F5F5F5F5F5F5F5F5F5F5F5F5F5F5F5F5F5F5F5F5F5F5F5F5F5F5F5F5F5F5F5F5F5F5F5E2F5F5F5F5F5F5F5F5F5F5F5F5F5F5F5F5E2F5F5F5E2E2EFF5F5F5E2F5F5F5F5F5F5F5F5F5F5F5F5F5F5F5F5E2F5F5F5F5F5F5F5F5F5
310
F5F5F5F5F5F5F5F5F5F5F5F5F5F5F5F5F5F5F5F5F5F5F5F5F5F5F5F5F5F5F5F5F5F5F5F5F5F5F5F5F5F5F5F5F5F5F5F5F5F5F5F5F5F5F5F5F5F5F5F5F5F5F5F5F5F5F5F5F5F5F5F5F5F5F5F5F5F5F5F5F5F5F5F5F5F5F5F5F5F5F5F5F5F5F5F5F5F5F5F5F5F5F5F5F5F5F5F5F5F5F5F5F5F5F5F5F5F5F5F5F5F5F5F5F5F5E2
310
F5F5F5F5F5F5F5F5F5F5F5F5F5F5F5F5E2F5F5F5E2E2EFF5F5F5E2F5F5F5F5F5F5F5F5F5F5F5F5F5F5F5F5E2F5F5F5F5F5F5F5F5F5F5F5F5F5F5F5F5F5F5F5F5F5F5F5F5F5F5F5F5F5F5F5F5F5F5F5F5F5F5F5F5F5F5F5F5F5F5F5F5F5F5F5F5F5F5F5F5F5F5F5F5F5F5F5F5F5F5F5F5F5F5F5F5F5F5F5F5F5F5F5F5F5F5F5
310
F5F5F5F5F5F5F5F5F5F5F5F5F5F5F5F5F5F5F5F5F5F5F5F5F5F5F5F5F5F5F5F5F5F5F5F5F5F5F5F5F5F5F5F5F5F5F5F5F5F5F5F5E2F5F5F5F5F5F5F5F5F5F5F5F5F5F5F5F5E2F5F5F5E2E2EFF5F5F5E2F5F5F5F5F5F5F5F5F5F5F5F5F5F5F5F5E2F5F5F5F5F5F5F5F5F5F5F5F5F5F5F5F5F5F5F5F5F5F5F5F5F5F5F5F5F5F5
310
F5F5F5F5F5F5F5F5F5F5F5F5F5F5F5F5F5F5F5F5F5F5F5F5F5F5F5F5F5F5F5F5F5F5F5F5F5F5F5F5F5F5F5F5F5F5F5F5F5F5F5F5F5F5F5F5F5F5F5F5F5F5F5F5F5F5F5F5F5F5F5F5F5F5F5F5F5F5F5F5F5F5F5F5F5F5F5F5F5F5F5F5F5F5F5F5F5F5F5F5F5F5F5F5F5E2F5F5F5F5F5F5F5F5F5F5F5F5F5F5F5F5E2F5F5F5E2
310
E2EFF5F5F5E2F5F5F5F5F5F5F5F5F5F5F5F5F5F5F5F5E2F5F5F5F5F5F5F5F5F5F5F5F5F5F5F5F5F5F5F5F5F5F5F5F5F5F5F5F5F5F5F5F5F5F5F5F5F5F5F5F5F5F5F5F5F5F5F5F5F5F5F5F5F5F5F5F5F5F5F5F5F5F5F5F5F5F5F5F5F5F5F5F5F5F5F5F5F5F5F5F5F5F5F5F5F5F5F5F5F5F5F5F5F5F5F5F5F5F5F5F5F5F5F5F5
310
F5F5F5F5F5F5F5F5F5F5F5F5F5F5F5F5F5F5F5F5F5F5F5F5F5F5F5F5F5F5F5E2F5F5F5F5F5F5F5F5F5F5F5F5F5F5F5F5E2F5F5F5E2E2EFF5F5F5E2F5F5F5F5F5F5F5F5F5F5F5F5F5F5F5F5E2F5F5F5F5F5F5F5F5F5F5F5F5F5F5F5F5F5F5F5F5F5F5F5F5F5F5F5F5F5F5F5F5F5F5F5F5F5F5F5F5F5F5F5F5F5F5F5F5F5F5F5
310
F5F5F5F5F5F5F5F5F5F5F5F5F5F5F5F5F5F5F5F5F5F5F5F5F5F5F5F5F5F5F5F5F5F5F5F5F5F5F5F5F5F5F5F5F5F5F5F5F5F5F5F5F5F5F5F5F5F5F5F5F5F5F5F5F5F5F5F5F5F5F5F5F5F5F5F5F5F5F5F5F5F5F5F5E2F5F5F5F5F5F5F5F5F5F5F5F5F5F5F5F5E2F5F5F5E2E2EFF5F5F5E2F5F5F5F5F5F5F5F5F5F5F5F5F5F5F5
310
F5E2F5F5F5F5F5F5F5F5F5F5F5F5F5F5F5F5F5F5F5F5F5F5F5F5F5F5F5F5F5F5F5F5F5F5F5F5F5F5F5F5F5F5F5F5F5F5F5F5F5F5F5F5F5F5F5F5F5F5F5F5F5F5F5F5F5F5F5F5F5F5F5F5F5F5F5F5F5F5F5F5F5F5F5F5F5F5F5F5F5F5F5F5F5F5F5F5F5F5F5F5F5F5F5F5F5F5F5F5F5F5F5F5F5F5F5F5F5F5F5F5F5F5F5F5F5
310
F5F5F5F5F5F5F5F5F5F5E2F5F5F5F5F5F5F5F5F5F5F5F5F5F5F5F5E2F5F5F5E2E2EFF5F5F5E2F5F5F5F5F5F5F5F5F5F5F5F5F5F5F5F5E2F5F5F5F5F5F5F5F5F5F5F5F5F5F5F5F5F5F5F5F5F5F5F5F5F5F5F5F5F5F5F5F5F5F5F5F5F5F5F5F5F5F5F5F5F5F5F5F5F5F5F5F5F5F5F5F5F5F5F5F5F5F5F5F5F5F5F5F5F5F5F5F5
310
F5F5F5F5F5F5F5F5F5F5F5F5F5F5F5F5F5F5F5F5F5F5F5F5F5F5F5F5F5F5F5F5F5F5F5F5F5F5F5F5F5F5F5F5F5F5F5F5F5F5F5F5F5F5F5F5F5F5F5F5F5F5F5E2F5F5F5F5F5F5F5F5F5F5F5F5F5F5F5F5E2F5F5F5E2E2EFF5F5F5E2F5F5F5F5F5F5F5F5F5F5F5F5F5F5F5F5E2F5F5F5F5F5F5F5F5F5F5F5F5F5F5F5F5F5F5F5
310
F5F5F5F5F5F5F5F5F5F5F5F5F5F5F5F5F5F5F5F5F5F5F5F5F5F5F5F5F5F5F5F5F5F5F5F5F5F5F5F5F5F5F5F5F5F5F5F5F5F5F5F5F5F5F5F5F5F5F5F5F5F5F5F5F5F5F5F5F5F5F5F5F5F5F5F5F5F5F5F5F5F5F5F5F5F5F5F5F5F5F5F5F5F5F5F5F5F5F5F5F5F5F5F5F5F5F5F5F5F5F5F5F5F5F5F5E2F5F5F5F5F5F5F5F5F5F5
310
F5F5F5F5F5F5E2F5F5F5E2E2EFF5F5F5E2F5F5F5F5F5F5F5F5F5F5F5F5F5F5F5F5E2F5F5F5F5F5F5F5F5F5F5F5F5F5F5F5F5F5F5F5F5F5F5F5F5F5F5F5F5F5F5F5F5F5F5F5F5F5F5F5F5F5F5F5F5F5F5F5F5F5F5F5F5F5F5F5F5F5F5F5F5F5F5F5F5F5F5F5F5F5F5F5F5F5F5F5F5F5F5F5F5F5F5F5F5F5F5F5F5F5F5F5F5F5
310
F5F5F5F5F5F5F5F5F5F5F5F5F5F5F5F5F5F5F5F5F5F5F5F5F5F5F5F5F5F5F5F5F5F5F5F5F5F5F5F5F5F5E2F5F5F5F5F5F5F5F5F5F5F5F5F5F5F5F5E2F5F5F5E2E2EFF5F5F5E2F5F5F5F5F5F5F5F5F5F5F5F5F5F5F5F5E2F5F5F5F5F5F5F5F5F5F5F5F5F5F5F5F5F5F5F5F5F5F5F5F5F5F5F5F5F5F5F5F5F5F5F5F5F5F5F5F5
310
F5F5F5F5F5F5F5F5F5F5F5F5F5F5F5F5F5F5F5F5F5F5F5F5F5F5F5F5F5F5F5F5F5F5F5F5F5F5F5F5F5F5F5F5F5F5F5F5F5F5F5F5F5F5F5F5F5F5F5F5F5F5F5F5F5F5F5F5F5F5F5F5F5F5F5F5F5F5F5F5F5F5F5F5F5F5F5F5F5F5F5F5F5F5F5E2F5F5F5F5F5F5F5F5F5F5F5F5F5F5F5F5E2F5F5F5E2E2EFF5F5F5E2F5F5F5F5
310
F5F5F5F5F5F5F5F5F5F5F5F5E2F5F5F5F5F5F5F5F5F5F5F5F5F5F5F5F5F5F5F5F5F5F5F5F5F5F5F5F5F5F5F5F5F5F5F5F5F5F5F5F5F5F5F5F5F5F5F5F5F5F5F5F5F5F5F5F5F5F5F5F5F5F5F5F5F5F5F5F5F5F5F5F5F5F5F5F5F5F5F5F5F5F5F5F5F5F5F5F5F5F5F5F5F5F5F5F5F5F5F5F5F5F5F5F5F5F5F5F5F5F5F5F5F5F5
310
F5F5F5F5F5F5F5F5F5F5F5F5F5F5F5F5F5F5F5F5F5E2F5F5F5F5F5F5F5F5F5F5F5F5F5F5F5F5E2F5F5F5E2E2EFF5F5F5F5F5F5F5F5F5F5F5F5F5F5F5F5F5F5F5F5E2F5F5F5F5F5F5F5F5F5F5F5F5F5F5F5F5F5F5F5F5F5F5F5F5F5F5F5F5F5F5F5F5F5F5F5F5F5F5F5F5F5F5F5F5F5F5F5F5F5F5F5F5F5F5F5F5F5F5F5F5F5
310
F5F5F5F5F5F5F5F5F5F5F5F5F5F5F5F5F5F5F5F5F5F5F5F5F5F5F5F5F5F5F5F5F5F5F5F5F5F5F5F5F5F5F5F5F5F5F5F5F5F5F5F5F5F5F5F5F5F5F5F5F5F5F5F5F5F5F5F5F5F5F5F5F5F5E2F5F5F5F5F5F5F5F5F5F5F5F5F5F5F5F5F5F5F5F5E2E2EFF5F5F5F5F5F5F5F5F5F5F5F5F5F5F5F5F5F5F5F5E2F5F5F5F5F5F5F5F5
310
F5F5F5F5F5F5F5F5F5F5F5F5F5F5F5F5F5F5F5F5F5F5F5F5F5F5F5F5F5F5F5F5F5F5F5F5F5F5F5F5F5F5F5F5F5F5F5F5F5F5F5F5F5F5F5F5F5F5F5F5F5F5F5F5F5F5F5F5F5F5F5F5F5F5F5F5F5F5F5F5F5F5F5F5F5F5F5F5F5F5F5F5F5F5F5F5F5F5F5F5F5F5F5F5F5F5F5F5F5F5F5F5F5F5F5F5F5F5F5F5F5F5F5F5F5F5F5
310
E2F5F5F5F5F5F5F5F5F5F5F5F5F5F5F5F5F5F5F5F5E2E2EFF5F5F5F5F5F5F5F5F5F5F5F5F5F5F5F5F5F5F5F5E2F5F5F5F5F5F5F5F5F5F5F5F5F5F5F5F5F5F5F5F5F5F5F5F5F5F5F5F5F5F5F5F5F5F5F5F5F5F5F5F5F5F5F5F5F5F5F5F5F5F5F5F5F5F5F5F5F5F5F5F5F5F5F5F5F5F5F5F5F5F5F5F5F5F5F5F5F5F5F5F5F5F5
310
F5F5F5F5F5F5F5F5F5F5F5F5F5F5F5F5F5F5F5F5F5F5F5F5F5F5F5F5F5F5F5F5F5F5F5F5F5F5F5F5F5F5F5F5F5F5F5F5F5F5F5F5F5E2F5F5F5F5F5F5F5F5F5F5F5F5F5F5F5F5F5F5F5F5E2E2EFF5F5F5F5F5F5F5F5F5F5F5F5F5F5F5F5F5F5F5F5E2F5F5F5F5F5F5F5F5F5F5F5F5F5F5F5F5F5F5F5F5F5F5F5F5F5F5F5F5F5
310
F5F5F5F5F5F5F5F5F5F5F5F5F5F5F5F5F5F5F5F5F5F5F5F5F5F5F5F5F5F5F5F5F5F5F5F5F5F5F5F5F5F5F5F5F5F5F5F5F5F5F5F5F5F5F5F5F5F5F5F5F5F5F5F5F5F5F5F5F5F5F5F5F5F5F5F5F5F5F5F5F5F5F5F5F5F5F5F5F5F5F5F5F5F5F5F5F5F5F5F5F5F5F5F5F5F5E2F5F5F5F5F5F5F5F5F5F5F5F5F5F5F5F5F5F5F5F5
310
E2E2EFF5F5F5F5F5F5F5F5F5F5F5F5F5F5F5F5F5F5F5F5E2F5F5F5F5F5F5F5F5F5F5F5F5F5F5F5F5F5F5F5F5F5F5F5F5F5F5F5F5F5F5F5F5F5F5F5F5F5F5F5F5F5F5F5F5F5F5F5F5F5F5F5F5F5F5F5F5F5F5F5F5F5F5F5F5F5F5F5F5F5F5F5F5F5F5F5F5F5F5F5F5F5F5F5F5F5F5F5F5F5F5F5F5F5F5F5F5F5F5F5F5F5F5F5
310
F5F5F5F5F5F5F5F5F5F5F5F5F5F5F5F5F5F5F5F5F5F5F5F5F5F5F5F5F5F5F5F5E2F5F5F5F5F5F5F5F5F5F5F5F5F5F5F5F5F5F5F5F5E2E2EFF5F5F5F5F5F5F5F5F5F5F5F5F5F5F5F5F5F5F5F5E2F5F5F5F5F5F5F5F5F5F5F5F5F5F5F5F5F5F5F5F5F5F5F5F5F5F5F5F5F5F5F5F5F5F5F5F5F5F5F5F5F5F5F5F5F5F5F5F5F5F5
310
F5F5F5F5F5F5F5F5F5F5F5F5F5F5F5F5F5F5F5F5F5F5F5F5F5F5F5F5F5F5F5F5F5F5F5F5F5F5F5F5F5F5F5F5F5F5F5F5F5F5F5F5F5F5F5F5F5F5F5F5F5F5F5F5F5F5F5F5F5F5F5F5F5F5F5F5F5F5F5F5F5F5F5F5F5E2F5F5F5F5F5F5F5F5F5F5F5F5F5F5F5F5F5F5F5F5E2E2EFF5F5F5F5F5F5F5F5F5F5F5F5F5F5F5F5F5F5
310
F5F5E2F5F5F5F5F5F5F5F5F5F5F5F5F5F5F5F5F5F5F5F5F5F5F5F5F5F5F5F5F5F5F5F5F5F5F5F5F5F5F5F5F5F5F5F5F5F5F5F5F5F5F5F5F5F5F5F5F5F5F5F5F5F5F5F5F5F5F5F5F5F5F5F5F5F5F5F5F5F5F5F5F5F5F5F5F5F5F5F5F5F5F5F5F5F5F5F5F5F5F5F5F5F5F5F5F5F5F5F5F5F5F5F5F5F5F5F5F5F5F5F5F5F5F5F5
310
F5F5F5F5F5F5F5F5F5F5F5E2F5F5F5F5F5F5F5F5F5F5F5F5F5F5F5F5F5F5F5F5E2E2EFF5F5F5F5F5F5F5F5F5F5F5F5F5F5F5F5F5F5F5F5E2F5F5F5F5F5F5F5F5F5F5F5F5F5F5F5F5F5F5F5F5F5F5F5F5F5F5F5F5F5F5F5F5F5F5F5F5F5F5F5F5F5F5F5F5F5F5F5F5F5F5F5F5F5F5F5F5F5F5F5F5F5F5F5F5F5F5F5F5F5F5F5
310
F5F5F5F5F5F5F5F5F5F5F5F5F5F5F5F5F5F5F5F5F5F5F5F5F5F5F5F5F5F5F5F5F5F5F5F5F5F5F5F5F5F5F5F5F5F5F5F5F5F5F5F5F5F5F5F5F5F5F5F5F5F5F5F5E2F5F5F5F5F5F5F5F5F5F5F5F5F5F5F5F5F5F5F5F5E2E2EFF5F5F5F5F5F5F5F5F5F5F5F5F5F5F5F5F5F5F5F5E2F5F5F5F5F5F5F5F5F5F5F5F5F5F5F5F5F5F5
310
F5F5F5F5F5F5F5F5F5F5F5F5F5F5F5F5F5F5F5F5F5F5F5F5F5F5F5F5F5F5F5F5F5F5F5F5F5F5F5F5F5F5F5F5F5F5F5F5F5F5F5F5F5F5F5F5F5F5F5F5F5F5F5F5F5F5F5F5F5F5F5F5F5F5F5F5F5F5F5F5F5F5F5F5F5F5F5F5F5F5F5F5F5F5F5F5F5F5F5F5F5F5F5F5F5F5F5F5F5F5F5F5F5F5F5F5F5E2F5F5F5F5F5F5F5F5F5
310
F5F5F5F5F5F5F5F5F5F5F5E2E2EFF5F5F5E2F5F5F5F5F5F5F5F5F5F5F5F5F5F5F5F5E2F5F5F5F5F5F5F5F5F5F5F5F5F5F5F5F5F5F5F5F5F5F5F5F5F5F5F5F5F5F5F5F5F5F5F5F5F5F5F5F5F5F5F5F5F5F5F5F5F5F5F5F5F5F5F5F5F5F5F5F5F5F5F5F5F5F5F5F5F5F5F5F5F5F5F5F5F5F5F5F5F5F5F5F5F5F5F5F5F5F5F5F5
310
F5F5F5F5F5F5F5F5F5F5F5F5F5F5F5F5F5F5F5F5F5F5F5F5F5F5F5F5F5F5F5F5F5F5F5F5F5F5F5F5F5F5F5E2F5F5F5F5F5F5F5F5F5F5F5F5F5F5F5F5E2F5F5F5E2E2EFF5F5F5E2F5F5F5F5F5F5F5F5F5F5F5F5F5F5F5F5E2F5F5F5F5F5F5F5F5F5F5F5F5F5F5F5F5F5F5F5F5F5F5F5F5F5F5F5F5F5F5F5F5F5F5F5F5F5F5F5
310
F5F5F5F5F5F5F5F5F5F5F5F5F5F5F5F5F5F5F5F5F5F5F5F5F5F5F5F5F5F5F5F5F5F5F5F5F5F5F5F5F5F5F5F5F5F5F5F5F5F5F5F5F5F5F5F5F5F5F5F5F5F5F5F5F5F5F5F5F5F5F5F5F5F5F5F5F5F5F5F5F5F5F5F5F5F5F5F5F5F5F5F5F5F5F5F5E2F5F5F5F5F5F5F5F5F5F5F5F5F5F5F5F5E2F5F5F5E2E2EFF5F5F5E2F5F5F5
310
F5F5F5F5F5F5F5F5F5F5F5F5F5E2F5F5F5F5F5F5F5F5F5F5F5F5F5F5F5F5F5F5F5F5F5F5F5F5F5F5F5F5F5F5F5F5F5F5F5F5F5F5F5F5F5F5F5F5F5F5F5F5F5F5F5F5F5F5F5F5F5F5F5F5F5F5F5F5F5F5F5F5F5F5F5F5F5F5F5F5F5F5F5F5F5F5F5F5F5F5F5F5F5F5F5F5F5F5F5F5F5F5F5F5F5F5F5F5F5F5F5F5F5F5F5F5F5
310
F5F5F5F5F5F5F5F5F5F5F5F5F5F5F5F5F5F5F5F5F5F5E2F5F5F5F5F5F5F5F5F5F5F5F5F5F5F5F5E2F5F5F5E2E2EFF5F5F5E2F5F5F5F5F5F5F5F5F5F5F5F5F5F5F5F5E2F5F5F5F5F5F5F5F5F5F5F5F5F5F5F5F5F5F5F5F5F5F5F5F5F5F5F5F5F5F5F5F5F5F5F5F5F5F5F5F5F5F5F5F5F5F5F5F5F5F5F5F5F5F5F5F5F5F5F5F5
310
F5F5F5F5F5F5F5F5F5F5F5F5F5F5F5F5F5F5F5F5F5F5F5F5F5F5F5F5F5F5F5F5F5F5F5F5F5F5F5F5F5F5F5F5F5F5F5F5F5F5F5F5F5F5F5F5F5F5F5F5F5F5F5F5F5F5F5F5F5F5F5F5F5F5F5E2F5F5F5F5F5F5F5F5F5F5F5F5F5F5F5F5E2F5F5F5E2E2EFF5F5F5E2F5F5F5F5F5F5F5F5F5F5F5F5F5F5F5F5E2F5F5F5F5F5F5F5
310
F5F5F5F5F5F5F5F5F5F5F5F5F5F5F5F5F5F5F5F5F5F5F5F5F5F5F5F5F5F5F5F5F5F5F5F5F5F5F5F5F5F5F5F5F5F5F5F5F5F5F5F5F5F5F5F5F5F5F5F5F5F5F5F5F5F5F5F5F5F5F5F5F5F5F5F5F5F5F5F5F5F5F5F5F5F5F5F5F5F5F5F5F5F5F5F5F5F5F5F5F5F5F5F5F5F5F5F5F5F5F5F5F5F5F5F5F5F5F5F5F5F5F5F5F5F5F5
310
F5E2F5F5F5F5F5F5F5F5F5F5F5F5F5F5F5F5E2F5F5F5E2E2EFF5F5F5E2F5F5F5F5F5F5F5F5F5F5F5F5F5F5F5F5E2F5F5F5F5F5F5F5F5F5F5F5F5F5F5F5F5F5F5F5F5F5F5F5F5F5F5F5F5F5F5F5F5F5F5F5F5F5F5F5F5F5F5F5F5F5F5F5F5F5F5F5F5F5F5F5F5F5F5F5F5F5F5F5F5F5F5F5F5F5F5F5F5F5F5F5F5F5F5F5F5F5
310
F5F5F5F5F5F5F5F5F5F5F5F5F5F5F5F5F5F5F5F5F5F5F5F5F5F5F5F5F5F5F5F5F5F5F5F5F5F5F5F5F5F5F5F5F5F5F5F5F5F5F5F5F5F5E2F5F5F5F5F5F5F5F5F5F5F5F5F5F5F5F5E2F5F5F5E2E2EFF5F5F5E2F5F5F5F5F5F5F5F5F5F5F5F5F5F5F5F5E2F5F5F5F5F5F5F5F5F5F5F5F5F5F5F5F5F5F5F5F5F5F5F5F5F5F5F5F5
310
F5F5F5F5F5F5F5F5F5F5F5F5F5F5F5F5F5F5F5F5F5F5F5F5F5F5F5F5F5F5F5F5F5F5F5F5F5F5F5F5F5F5F5F5F5F5F5F5F5F5F5F5F5F5F5F5F5F5F5F5F5F5F5F5F5F5F5F5F5F5F5F5F5F5F5F5F5F5F5F5F5F5F5F5F5F5F5F5F5F5F5F5F5F5F5F5F5F5F5F5F5F5F5F5F5F5F5E2F5F5F5F5F5F5F5F5F5F5F5F5F5F5F5F5E2F5F5
310
F5E2E2EFF5F5F5E2F5F5F5F5F5F5F5F5F5F5F5F5F5F5F5F5E2F5F5F5F5F5F5F5F5F5F5F5F5F5F5F5F5F5F5F5F5F5F5F5F5F5F5F5F5F5F5F5F5F5F5F5F5F5F5F5F5F5F5F5F5F5F5F5F5F5F5F5F5F5F5F5F5F5F5F5F5F5F5F5F5F5F5F5F5F5F5F5F5F5F5F5F5F5F5F5F5F5F5F5F5F5F5F5F5F5F5F5F5F5F5F5F5F5F5F5F5F5F5
310
F5F5F5F5F5F5F5F5F5F5F5F5F5F5F5F5F5F5F5F5F5F5F5F5F5F5F5F5F5F5F5F5F5E2F5F5F5F5F5F5F5F5F5F5F5F5F5F5F5F5E2F5F5F5E2E2EFF5F5F5E2F5F5F5F5F5F5F5F5F5F5F5F5F5F5F5F5E2F5F5F5F5F5F5F5F5F5F5F5F5F5F5F5F5F5F5F5F5F5F5F5F5F5F5F5F5F5F5F5F5F5F5F5F5F5F5F5F5F5F5F5F5F5F5F5F5F5
310
F5F5F5F5F5F5F5F5F5F5F5F5F5F5F5F5F5F5F5F5F5F5F5F5F5F5F5F5F5F5F5F5F5F5F5F5F5F5F5F5F5F5F5F5F5F5F5F5F5F5F5F5F5F5F5F5F5F5F5F5F5F5F5F5F5F5F5F5F5F5F5F5F5F5F5F5F5F5F5F5F5F5F5F5F5F5E2F5F5F5F5F5F5F5F5F5F5F5F5F5F5F5F5E2F5F5F5E2E2EFF5F5F5E2F5F5F5F5F5F5F5F5F5F5F5F5F5
310
F5F5F5E2F5F5F5F5F5F5F5F5F5F5F5F5F5F5F5F5F5F5F5F5F5F5F5F5F5F5F5F5F5F5F5F5F5F5F5F5F5F5F5F5F5F5F5F5F5F5F5F5F5F5F5F5F5F5F5F5F5F5F5F5F5F5F5F5F5F5F5F5F5F5F5F5F5F5F5F5F5F5F5F5F5F5F5F5F5F5F5F5F5F5F5F5F5F5F5F5F5F5F5F5F5F5F5F5F5F5F5F5F5F5F5F5F5F5F5F5F5F5F5F5F5F5F5
310
F5F5F5F5F5F5F5F5F5F5F5F5E2F5F5F5F5F5F5F5F5F5F5F5F5F5F5F5F5E2F5F5F5E2E2EFF5F5F5E2F5F5F5F5F5F5F5F5F5F5F5F5F5F5F5F5E2F5F5F5F5F5F5F5F5F5F5F5F5F5F5F5F5F5F5F5F5F5F5F5F5F5F5F5F5F5F5F5F5F5F5F5F5F5F5F5F5F5F5F5F5F5F5F5F5F5F5F5F5F5F5F5F5F5F5F5F5F5F5F5F5F5F5F5F5F5F5
310
F5F5F5F5F5F5F5F5F5F5F5F5F5F5F5F5F5F5F5F5F5F5F5F5F5F5F5F5F5F5F5F5F5F5F5F5F5F5F5F5F5F5F5F5F5F5F5F5F5F5F5F5F5F5F5F5F5F5F5F5F5F5F5F5F5E2F5F5F5F5F5F5F5F5F5F5F5F5F5F5F5F5E2F5F5F5E2E2EFF5F5F5E2F5F5F5F5F5F5F5F5F5F5F5F5F5F5F5F5E2F5F5F5F5F5F5F5F5F5F5F5F5F5F5F5F5F5
310
F5F5F5F5F5F5F5F5F5F5F5F5F5F5F5F5F5F5F5F5F5F5F5F5F5F5F5F5F5F5F5F5F5F5F5F5F5F5F5F5F5F5F5F5F5F5F5F5F5F5F5F5F5F5F5F5F5F5F5F5F5F5F5F5F5F5F5F5F5F5F5F5F5F5F5F5F5F5F5F5F5F5F5F5F5F5F5F5F5F5F5F5F5F5F5F5F5F5F5F5F5F5F5F5F5F5F5F5F5F5F5F5F5F5F5F5F5F5E2F5F5F5F5F5F5F5F5
310
F5F5F5F5F5F5F5F5E2F5F5F5E2E2EFF5F5F5E2F5F5F5F5F5F5F5F5F5F5F5F5F5F5F5F5E2F5F5F5F5F5F5F5F5F5F5F5F5F5F5F5F5F5F5F5F5F5F5F5F5F5F5F5F5F5F5F5F5F5F5F5F5F5F5F5F5F5F5F5F5F5F5F5F5F5F5F5F5F5F5F5F5F5F5F5F5F5F5F5F5F5F5F5F5F5F5F5F5F5F5F5F5F5F5F5F5F5F5F5F5F5F5F5F5F5F5F5
310
F5F5F5F5F5F5F5F5F5F5F5F5F5F5F5F5F5F5F5F5F5F5F5F5F5F5F5F5F5F5F5F5F5F5F5F5F5F5F5F5F5F5F5F5E2F5F5F5F5F5F5F5F5F5F5F5F5F5F5F5F5E2F5F5F5E2E2EFF5F5F5E2F5F5F5F5F5F5F5F5F5F5F5F5F5F5F5F5E2F5F5F5F5F5F5F5F5F5F5F5F5F5F5F5F5F5F5F5F5F5F5F5F5F5F5F5F5F5F5F5F5F5F5F5F5F5F5
310
F5F5F5F5F5F5F5F5F5F5F5F5F5F5F5F5F5F5F5F5F5F5F5F5F5F5F5F5F5F5F5F5F5F5F5F5F5F5F5F5F5F5F5F5F5F5F5F5F5F5F5F5F5F5F5F5F5F5F5F5F5F5F5F5F5F5F5F5F5F5F5F5F5F5F5F5F5F5F5F5F5F5F5F5F5F5F5F5F5F5F5F5F5F5F5F5F5E2F5F5F5F5F5F5F5F5F5F5F5F5F5F5F5F5E2F5F5F5E2E2EFF5F5F5E2F5F5
310
F5F5F5F5F5F5F5F5F5F5F5F5F5F5E2F5F5F5F5F5F5F5F5F5F5F5F5F5F5F5F5F5F5F5F5F5F5F5F5F5F5F5F5F5F5F5F5F5F5F5F5F5F5F5F5F5F5F5F5F5F5F5F5F5F5F5F5F5F5F5F5F5F5F5F5F5F5F5F5F5F5F5F5F5F5F5F5F5F5F5F5F5F5F5F5F5F5F5F5F5F5F5F5F5F5F5F5F5F5F5F5F5F5F5F5F5F5F5F5F5F5F5F5F5F5F5F5
310
F5F5F5F5F5F5F5F5F5F5F5F5F5F5F5F5F5F5F5F5F5F5F5E2F5F5F5F5F5F5F5F5F5F5F5F5F5F5F5F5E2F5F5F5E2E2EFF5F5F5E2F5F5F5F5F5F5F5F5F5F5F5F5F5F5F5F5E2F5F5F5F5F5F5F5F5F5F5F5F5F5F5F5F5F5F5F5F5F5F5F5F5F5F5F5F5F5F5F5F5F5F5F5F5F5F5F5F5F5F5F5F5F5F5F5F5F5F5F5F5F5F5F5F5F5F5F5
310
F5F5F5F5F5F5F5F5F5F5F5F5F5F5F5F5F5F5F5F5F5F5F5F5F5F5F5F5F5F5F5F5F5F5F5F5F5F5F5F5F5F5F5F5F5F5F5F5F5F5F5F5F5F5F5F5F5F5F5F5F5F5F5F5F5F5F5F5F5F5F5F5F5F5F5F5E2F5F5F5F5F5F5F5F5F5F5F5F5F5F5F5F5E2F5F5F5E2E2EFF5F5F5E2F5F5F5F5F5F5F5F5F5F5F5F5F5F5F5F5E2F5F5F5F5F5F5
310
F5F5F5F5F5F5F5F5F5F5F5F5F5F5F5F5F5F5F5F5F5F5F5F5F5F5F5F5F5F5F5F5F5F5F5F5F5F5F5F5F5F5F5F5F5F5F5F5F5F5F5F5F5F5F5F5F5F5F5F5F5F5F5F5F5F5F5F5F5F5F5F5F5F5F5F5F5F5F5F5F5F5F5F5F5F5F5F5F5F5F5F5F5F5F5F5F5F5F5F5F5F5F5F5F5F5F5F5F5F5F5F5F5F5F5F5F5F5F5F5F5F5F5F5F5F5F5
310
F5F5E2F5F5F5F5F5F5F5F5F5F5F5F5F5F5F5F5E2F5F5F5E2E2EFF5F5F5F5F5F5F5F5F5F5F5F5F5F5F5F5F5F5F5F5E2F5F5F5F5F5F5F5F5F5F5F5F5F5F5F5F5F5F5F5F5F5F5F5F5F5F5F5F5F5F5F5F5F5F5F5F5F5F5F5F5F5F5F5F5F5F5F5F5F5F5F5F5F5F5F5F5F5F5F5F5F5F5F5F5F5F5F5F5F5F5F5F5F5F5F5F5F5F5F5F5
310
F5F5F5F5F5F5F5F5F5F5F5F5F5F5F5F5F5F5F5F5F5F5F5F5F5F5F5F5F5F5F5F5F5F5F5F5F5F5F5F5F5F5F5F5F5F5F5F5F5F5F5F5F5F5F5E2F5F5F5F5F5F5F5F5F5F5F5F5F5F5F5F5F5F5F5F5E2E2EFF5F5F5F5F5F5F5F5F5F5F5F5F5F5F5F5F5F5F5F5E2F5F5F5F5F5F5F5F5F5F5F5F5F5F5F5F5F5F5F5F5F5F5F5F5F5F5F5
310
F5F5F5F5F5F5F5F5F5F5F5F5F5F5F5F5F5F5F5F5F5F5F5F5F5F5F5F5F5F5F5F5F5F5F5F5F5F5F5F5F5F5F5F5F5F5F5F5F5F5F5F5F5F5F5F5F5F5F5F5F5F5F5F5F5F5F5F5F5F5F5F5F5F5F5F5F5F5F5F5F5F5F5F5F5F5F5F5F5F5F5F5F5F5F5F5F5F5F5F5F5F5F5F5F5F5F5F5E2F5F5F5F5F5F5F5F5F5F5F5F5F5F5F5F5F5F5
310
F5F5E2E2EFF5F5F5F5F5F5F5F5F5F5F5F5F5F5F5F5F5F5F5F5E2F5F5F5F5F5F5F5F5F5F5F5F5F5F5F5F5F5F5F5F5F5F5F5F5F5F5F5F5F5F5F5F5F5F5F5F5F5F5F5F5F5F5F5F5F5F5F5F5F5F5F5F5F5F5F5F5F5F5F5F5F5F5F5F5F5F5F5F5F5F5F5F5F5F5F5F5F5F5F5F5F5F5F5F5F5F5F5F5F5F5F5F5F5F5F5F5F5F5F5F5F5
310
F5F5F5F5F5F5F5F5F5F5F5F5F5F5F5F5F5F5F5F5F5F5F5F5F5F5F5F5F5F5F5F5F5F5E2F5F5F5F5F5F5F5F5F5F5F5F5F5F5F5F5F5F5F5F5E2E2EFF5F5F5F5F5F5F5F5F5F5F5F5F5F5F5F5F5F5F5F5E2F5F5F5F5F5F5F5F5F5F5F5F5F5F5F5F5F5F5F5F5F5F5F5F5F5F5F5F5F5F5F5F5F5F5F5F5F5F5F5F5F5F5F5F5F5F5F5F5
310
F5F5F5F5F5F5F5F5F5F5F5F5F5F5F5F5F5F5F5F5F5F5F5F5F5F5F5F5F5F5F5F5F5F5F5F5F5F5F5F5F5F5F5F5F5F5F5F5F5F5F5F5F5F5F5F5F5F5F5F5F5F5F5F5F5F5F5F5F5F5F5F5F5F5F5F5F5F5F5F5F5F5F5F5F5F5F5E2F5F5F5F5F5F5F5F5F5F5F5F5F5F5F5F5F5F5F5F5E2E2EFF5F5F5F5F5F5F5F5F5F5F5F5F5F5F5F5
310
F5F5F5F5E2E2E2E2E2E2E2E2E2E2E2E2E2E2E2E2E2E2E2E2E2E2E2E2E2E2E2E2E2E2E2E2E2E2E2E2E2E2E2E2E2E2E2E2E2E2E2E2E2E2E2E2E2E2E2E2E2E2E2E2E2E2E2E2E2E2E2E2E2E2E2E2E2E2E2E2E2E2E2E2E2E2E2E2E2E2E2E2E2E2E2E2E2E2E2E2E2E2E2E2E2E2E2E2E2E2E2E2E2E2E2E2E2E2E2E2E2E2E2E2E2E2E2
310
E2E2E2E2E2E2E2E2E2E2E2E2E2E2F5F5F5F5F5F5F5F5F5F5F5F5F5F5F5F5F5F5F5F5E2E2EFF5F5F5F5F5F5F5F5F5F5F5F5F5F5F5F5F5F5F5F5F5F5F5F5F5F5F5F5F5F5F5F5F5F5F5F5F5F5F5F5F5F5F5F5F5F5F5F5F5F5F5F5F5F5F5F5F5F5F5F5F5F5F5F5F5F5F5F5F5F5F5F5F5F5F5F5F5F5F5F5F5F5F5F5F5F5F5F5F5F5
310
F5F5F5F5F5F5F5F5F5F5F5F5F5F5F5F5F5F5F5F5F5F5F5F5F5F5F5F5F5F5F5F5F5F5F5F5F5F5F5F5F5F5F5F5F5F5F5F5F5F5F5F5F5F5F5F5F5F5F5F5F5F5F5F5F5F5F5F5F5F5F5F5F5F5F5F5F5F5F5F5F5F5F5F5F5F5F5E2E2EFF5F5F5F5F5F5F5F5F5F5F5F5F5F5F5F5F5F5F5F5F5F5F5F5F5F5F5F5F5F5F5F5F5F5F5F5F5
310
F5F5F5F5F5F5F5F5F5F5F5F5F5F5F5F5F5F5F5F5F5F5F5F5F5F5F5F5F5F5F5F5F5F5F5F5F5F5F5F5F5F5F5F5F5F5F5F5F5F5F5F5F5F5F5F5F5F5F5F5F5F5F5F5F5F5F5F5F5F5F5F5F5F5F5F5F5F5F5F5F5F5F5F5F5F5F5F5F5F5F5F5F5F5F5F5F5F5F5F5F5F5F5F5F5F5F5F5F5F5F5F5F5F5F5F5F5F5F5F5F5F5F5F5F5F5F5
310
F5F5F5F5F5F5F5F5F5F5F5F5F5E2E2EFF5F5F5F5F5F5F5F5F5F5F5F5F5F5F5F5F5F5F5F5F5F5F5F5F5F5F5F5F5F5F5F5F5F5F5F5F5F5F5F5F5F5F5F5F5F5F5F5F5F5F5F5F5F5F5F5F5F5F5F5F5F5F5F5F5F5F5F5F5F5F5F5F5F5F5F5F5F5F5F5F5F5F5F5F5F5F5F5F5F5F5F5F5F5F5F5F5F5F5F5F5F5F5F5F5F5F5F5F5F5F5
310
F5F5F5F5F5F5F5F5F5F5F5F5F5F5F5F5F5F5F5F5F5F5F5F5F5F5F5F5F5F5F5F5F5F5F5F5F5F5F5F5F5F5F5F5F5F5F5F5F5F5F5F5F5F5F5F5F5F5F5F5F5F5F5F5F5F5E2E2EFF5F5F5F5F5F5F5F5F5F5F5F5F5F5F5F5F5F5F5F5F5F5F5F5F5F5F5F5F5F5F5F5F5F5F5F5F5F5F5F5F5F5F5F5F5F5F5F5F5F5F5F5F5F5F5F5F5F5
310
F5F5F5F5F5F5F5F5F5F5F5F5F5F5F5F5F5F5F5F5F5F5F5F5F5F5F5F5F5F5F5F5F5F5F5F5F5F5F5F5F5F5F5F5F5F5F5F5F5F5F5F5F5F5F5F5F5F5F5F5F5F5F5F5F5F5F5F5F5F5F5F5F5F5F5F5F5F5F5F5F5F5F5F5F5F5F5F5F5F5F5F5F5F5F5F5F5F5F5F5F5F5F5F5F5F5F5F5F5F5F5F5F5F5F5F5F5F5F5E2E2EFF5F5F5E2F5
310
F5F5F5F5F5F5F5F5F5F5F5F5F5F5F5F5F5F5F5F5F5F5F5F5F5F5F5F5F5F5F5F5F5F5F5F5F5F5F5F5F5F5F5F5F5F5F5F5F5F5F5F5F5F5F5F5F5F5F5F5F5F5F5F5F5F5F5F5F5F5F5F5F5F5F5F5F5F5F5F5F5F5F5F5F5F5F5F5F5F5F5F5F5F5F5F5F5F5F5F5F5F5F5F5F5F5F5F5F5F5F5F5F5F5F5F5F5F5F5F5F5F5F5F5F5F5F5
310
F5F5F5F5F5F5F5F5F5F5F5F5F5F5F5F5F5F5F5F5F5F5F5F5F5F5F5F5F5F5F5F5F5F5F5F5F5F5F5F5F5E2F5F5F5E2E2EFF5F5F5E2F5F5F5F5F5F5F5F5F5F5F5F5F5F5F5F5F5F5F5F5F5F5F5F5F5F5F5F5F5F5F5F5F5F5F5F5F5F5F5F5F5F5F5F5F5F5F5F5F5F5F5F5F5F5F5F5F5F5F5F5F5F5F5F5F5F5F5F5F5F5F5F5F5F5F5
310
F5F5F5F5F5F5F5F5F5F5F5F5F5F5F5F5F5F5F5F5F5F5F5F5F5F5F5F5F5F5F5F5F5F5F5F5F5F5F5F5F5F5F5F5F5F5F5F5F5F5F5F5F5F5F5F5F5F5F5F5F5F5F5F5F5F5F5F5F5F5F5F5F5F5F5F5F5F5F5F5F5F5F5F5F5F5F5F5F5F5F5F5F5F5E2F5F5F5E2E2EFF5F5F5E2F5F5F5F5F5F5F5F5F5F5F5F5F5F5F5F5F5F5F5F5F5F5
310
F5F5F5F5F5F5F5F5F5F5F5F5F5F5F5F5F5F5F5F5F5F5F5F5F5F5F5F5F5F5F5F5F5F5F5F5F5F5F5F5F5F5F5F5F5F5F5F5F5F5F5F5F5F5F5F5F5F5F5F5F5F5F5F5F5F5F5F5F5F5F5F5F5F5F5F5F5F5F5F5F5F5F5F5F5F5F5F5F5F5F5F5F5F5F5F5F5F5F5F5F5F5F5F5F5F5F5F5F5F5F5F5F5F5F5F5F5F5F5F5F5F5F5F5F5F5F5
310
F5F5F5F5F5F5F5F5F5F5F5F5F5F5F5F5F5F5F5F5E2F5F5F5E2E2EFF5F5F5E2F5F5F5F5F5F5F5F5F5F5F5F5F5F5F5F5F5F5F5F5F5F5F5F5F5F5F5F5F5F5F5F5F5F5F5F5F5F5F5F5F5F5F5F5F5F5F5F5F5F5F5F5F5F5F5F5F5F5F5F5F5F5F5F5F5F5F5F5F5F5F5F5F5F5F5F5F5F5F5F5F5F5F5F5F5F5F5F5F5F5F5F5F5F5F5F5
310
F5F5F5F5F5F5F5F5F5F5F5F5F5F5F5F5F5F5F5F5F5F5F5F5F5F5F5F5F5F5F5F5F5F5F5F5F5F5F5F5F5F5F5F5F5F5F5F5F5F5F5F5F5F5F5F5F5F5F5F5F5F5F5F5F5F5F5F5F5F5F5F5F5E2F5F5F5E2E2EFF5F5F5E2F5F5F5F5F5F5F5F5F5F5F5F5F5F5F5F5F5F5F5F5F5F5F5F5F5F5F5F5F5F5F5F5F5F5F5F5F5F5F5F5F5F5F5
310
F5F5F5F5F5F5F5F5F5F5F5F5F5F5F5F5F5F5F5F5F5F5F5F5F5F5F5F5F5F5F5F5F5F5F5F5F5F5F5F5F5F5F5F5F5F5F5F5F5F5F5F5F5F5F5F5F5F5F5F5F5F5F5F5F5F5F5F5F5F5F5F5F5F5F5F5F5F5F5F5F5F5F5F5F5F5F5F5F5F5F5F5F5F5F5F5F5F5F5F5F5F5F5F5F5F5F5F5F5F5F5F5F5F5F5F5F5F5F5F5F5F5F5F5F5F5E2
310
F5F5F5E2E2EFF5F5F5E2F5F5F5F5F5F5F5F5F5F5F5F5F5F5F5F5F5F5F5F5F5F5F5F5F5F5F5F5F5F5F5F5F5F5F5F5F5F5F5F5F5F5F5F5F5F5F5F5F5F5F5F5F5F5F5F5F5F5F5F5F5F5F5F5F5F5F5F5F5F5F5F5F5F5F5F5F5F5F5F5F5F5F5F5F5F5F5F5F5F5F5F5F5F5F5F5F5F5F5F5F5F5F5F5F5F5F5F5F5F5F5F5F5F5F5F5F5
310
F5F5F5F5F5F5F5F5F5F5F5F5F5F5F5F5F5F5F5F5F5F5F5F5F5F5F5F5F5F5F5F5F5F5F5F5F5F5F5F5F5F5F5F5F5F5F5F5F5F5F5F5E2F5F5F5E2E2EFF5F5F5E2F5F5F5F5F5F5F5F5F5F5F5F5F5F5F5F5F5F5F5F5F5F5F5F5F5F5F5F5F5F5F5F5F5F5F5F5F5F5F5F5F5F5F5F5F5F5F5F5F5F5F5F5F5F5F5F5F5F5F5F5F5F5F5F5
310
F5F5F5F5F5F5F5F5F5F5F5F5F5F5F5F5F5F5F5F5F5F5F5F5F5F5F5F5F5F5F5F5F5F5F5F5F5F5F5F5F5F5F5F5F5F5F5F5F5F5F5F5F5F5F5F5F5F5F5F5F5F5F5F5F5F5F5F5F5F5F5F5F5F5F5F5F5F5F5F5F5F5F5F5F5F5F5F5F5F5F5F5F5F5F5F5F5F5F5F5F5F5F5F5F5E2F5F5F5E2E2EFF5F5F5E2F5F5F5F5F5F5F5F5F5F5F5
310
F5F5F5F5F5F5F5F5F5F5F5F5F5F5F5F5F5F5F5F5F5F5F5F5F5F5F5F5F5F5F5F5F5F5F5F5F5F5F5F5F5F5F5F5F5F5F5F5F5F5F5F5F5F5F5F5F5F5F5F5F5F5F5F5F5F5F5F5F5F5F5F5F5F5F5F5F5F5F5F5F5F5F5F5F5F5F5F5F5F5F5F5F5F5F5F5F5F5F5F5F5F5F5F5F5F5F5F5F5F5F5F5F5F5F5F5F5F5F5F5F5F5F5F5F5F5F5
310
F5F5F5F5F5F5F5F5F5F5F5F5F5F5F5F5F5F5F5F5F5F5F5F5F5F5F5F5F5F5F5E2F5F5F5E2E2EFF5F5F5E2E2E2E2E2E2E2E2F5F5F5F5F5F5F5F5F5E2E2E2E2E2E2E2E2E2E2E2E2E2E2E2E2F5F5F5F5F5F5F5F5E2E2E2E2E2E2E2E2E2E2E2E2E2E2E2E2F5F5F5F5F5F5F5F5F5E2E2E2E2E2E2E2E2E2E2E2E2E2E2E2F5F5F5F5F5
310
F5F5F5F5E2E2E2E2E2E2E2E2E2E2E2E2E2E2E2F5F5F5F5F5F5F5F5F5E2E2E2E2E2E2E2E2E2E2E2E2E2E2E2E2F5F5F5F5F5F5F5F5E2E2E2E2E2E2E2E2E2E2E2E2E2E2E2E2F5F5F5F5F5F5F5F5F5E2E2E2E2E2E2E2E2F5F5F5E2E2EFF5F5F5F5F5F5F5F5F5F5F5F5F5F5F5F5F5F5F5F5F5F5F5F5F5F5F5F5F5F5F5F5F5F5F5F5
310
F5F5F5F5F5F5F5F5F5F5F5F5F5F5F5F5F5F5F5F5F5F5F5F5F5F5F5F5F5F5F5F5F5F5F5F5F5F5F5F5F5F5F5F5F5F5F5F5F5F5F5F5F5F5F5F5F5F5F5F5F5F5F5F5F5F5F5F5F5F5F5F5F5F5F5F5F5F5F5F5F5F5F5F5F5F5F5F5F5F5F5F5F5F5F5F5F5F5F5F5F5F5F5F5F5F5F5F5F5F5F5F5F5F5F5F5F5F5F5F5F5F5F5F5F5F5F5
310
F5F5F5F5F5F5F5F5F5F5F5F5F5F5E2E2EFF5F5F5F5F5F5F5F5F5F5F5F5F5F5F5F5F5F5F5F5F5F5F5F5F5F5F5F5F5F5F5F5F5F5F5F5F5F5F5F5F5F5F5F5F5F5F5F5F5F5F5F5F5F5F5F5F5F5F5F5F5F5F5F5F5F5F5F5F5F5F5F5F5F5F5F5F5F5F5F5F5F5F5F5F5F5F5F5F5F5F5F5F5F5F5F5F5F5F5F5F5F5F5F5F5F5F5F5F5F5
310
F5F5F5F5F5F5F5F5F5F5F5F5F5F5F5F5F5F5F5F5F5F5F5F5F5F5F5F5F5F5F5F5F5F5F5F5F5F5F5F5F5F5F5F5F5F5F5F5F5F5F5F5F5F5F5F5F5F5F5F5F5F5F5F5F5F5F5E2EFEFF5F5F5F5F5F5F5F5F5F5F5F5F5F5F5F5F5F5F5F5F5F5F5F5F5F5F5F5F5F5F5F5F5F5F5F5F5F5F5F5F5F5F5F5F5F5F5F5F5F5F5F5F5F5F5F5F5
310
F5F5F5F5F5F5F5F5F5F5F5F5F5F5F5F5F5F5F5F5F5F5F5F5F5F5F5F5F5F5F5F5F5F5F5F5F5F5F5F5F5F5F5F5F5F5F5F5F5F5F5F5F5F5F5F5F5F5F5F5F5F5F5F5F5F5F5F5F5F5F5F5F5F5F5F5F5F5F5F5F5F5F5F5F5F5F5F5F5F5F5F5F5F5F5F5F5F5F5F5F5F5F5F5F5F5F5F5F5F5F5F5F5F5F5F5F5F5F5F5E2EFEFE2E2E2E2
310
E2E2E2E2E2E2E2E2E2E2E2E2E2E2E2E2E2E2E2E2E2E2E2E2E2E2E2E2E2E2E2E2E2E2E2E2E2E2E2E2E2E2E2E2E2E2E2E2E2E2E2E2E2E2E2E2E2E2E2E2E2E2E2E2E2E2E2E2E2E2E2E2E2E2E2E2E2E2E2E2E2E2E2E2E2E2E2E2E2E2E2E2E2E2E2E2E2E2E2E2E2E2E2E2E2E2E2E2E2E2E2E2E2E2E2E2E2E2E2E2E2E2E2E2E2E2E2
310
E2E2E2E2E2E2E2E2E2E2E2E2E2E2E2E2E2E2E2E2E2E2E2E2E2E2E2E2E2E2E2E2E2E2E2E2E2E2E2E2E2E2E2E2E2E2E2EFEF
  0
XRECORD
  5
C39
102
{ACAD_REACTORS
330
C38
102
}
330
C38
100
AcDbXrecord
280
     1
270
     1
271
     1
  0
XRECORD
  5
C3A
102
{ACAD_REACTORS
330
C38
102
}
330
C38
100
AcDbXrecord
280
     1
270
     1
271
     1
  0
XRECORD
  5
C3B
102
{ACAD_REACTORS
330
C38
102
}
330
C38
100
AcDbXrecord
280
     1
270
     1
271
     1
  0
XRECORD
  5
C3C
102
{ACAD_REACTORS
330
C38
102
}
330
C38
100
AcDbXrecord
280
     1
270
     1
271
     1
  0
XRECORD
  5
C3D
102
{ACAD_REACTORS
330
C38
102
}
330
C38
100
AcDbXrecord
280
     1
270
     1
271
     1
  0
XRECORD
  5
C3E
102
{ACAD_REACTORS
330
C38
102
}
330
C38
100
AcDbXrecord
280
     1
270
     1
271
     1
  0
XRECORD
  5
C31
102
{ACAD_REACTORS
330
C30
102
}
330
C30
100
AcDbXrecord
280
     1
270
     1
271
     1
  0
XRECORD
  5
C32
102
{ACAD_REACTORS
330
C30
102
}
330
C30
100
AcDbXrecord
280
     1
270
     1
271
     1
  0
XRECORD
  5
C33
102
{ACAD_REACTORS
330
C30
102
}
330
C30
100
AcDbXrecord
280
     1
270
     1
271
     1
  0
XRECORD
  5
C34
102
{ACAD_REACTORS
330
C30
102
}
330
C30
100
AcDbXrecord
280
     1
270
     1
271
     1
  0
XRECORD
  5
C35
102
{ACAD_REACTORS
330
C30
102
}
330
C30
100
AcDbXrecord
280
     1
270
     1
271
     1
  0
XRECORD
  5
C36
102
{ACAD_REACTORS
330
C30
102
}
330
C30
100
AcDbXrecord
280
     1
270
     1
271
     1
  0
XRECORD
  5
C07
102
{ACAD_REACTORS
330
C06
102
}
330
C06
100
AcDbXrecord
280
     1
270
     1
271
     1
  0
XRECORD
  5
C08
102
{ACAD_REACTORS
330
C06
102
}
330
C06
100
AcDbXrecord
280
     1
270
     1
271
     1
  0
XRECORD
  5
C09
102
{ACAD_REACTORS
330
C06
102
}
330
C06
100
AcDbXrecord
280
     1
270
     1
271
     1
  0
XRECORD
  5
C0A
102
{ACAD_REACTORS
330
C06
102
}
330
C06
100
AcDbXrecord
280
     1
270
     1
271
     1
  0
XRECORD
  5
C0B
102
{ACAD_REACTORS
330
C06
102
}
330
C06
100
AcDbXrecord
280
     1
270
     1
271
     1
  0
XRECORD
  5
C0C
102
{ACAD_REACTORS
330
C06
102
}
330
C06
100
AcDbXrecord
280
     1
270
     1
271
     1
  0
CELLSTYLEMAP
  5
E4F
102
{ACAD_REACTORS
330
CBA
102
}
330
CBA
100
AcDbCellStyleMap
 90
        3
300
CELLSTYLE
  1
TABLEFORMAT_BEGIN
 90
        5
170
     1
 91
        0
 92
    32768
 62
   257
 93
        1
300
CONTENTFORMAT
  1
CONTENTFORMAT_BEGIN
 90
        0
 91
        0
 92
        4
 93
        0
300

 40
0.0
140
1.0
 94
        5
 62
     0
340
C1C
144
0.25
309
CONTENTFORMAT_END
171
     1
301
MARGIN
  1
CELLMARGIN_BEGIN
 40
0.06
 40
0.06
 40
0.06
 40
0.06
 40
0.18
 40
0.18
309
CELLMARGIN_END
 94
        6
 95
        1
302
GRIDFORMAT
  1
GRIDFORMAT_BEGIN
 90
        0
 91
        1
 62
     0
 92
       -2
340
0
 93
        0
 40
0.045
309
GRIDFORMAT_END
 95
        2
302
GRIDFORMAT
  1
GRIDFORMAT_BEGIN
 90
        0
 91
        1
 62
     0
 92
       -2
340
0
 93
        0
 40
0.045
309
GRIDFORMAT_END
 95
        4
302
GRIDFORMAT
  1
GRIDFORMAT_BEGIN
 90
        0
 91
        1
 62
     0
 92
       -2
340
0
 93
        0
 40
0.045
309
GRIDFORMAT_END
 95
        8
302
GRIDFORMAT
  1
GRIDFORMAT_BEGIN
 90
        0
 91
        1
 62
     0
 92
       -2
340
0
 93
        0
 40
0.045
309
GRIDFORMAT_END
 95
       16
302
GRIDFORMAT
  1
GRIDFORMAT_BEGIN
 90
        0
 91
        1
 62
     0
 92
       -2
340
0
 93
        0
 40
0.045
309
GRIDFORMAT_END
 95
       32
302
GRIDFORMAT
  1
GRIDFORMAT_BEGIN
 90
        0
 91
        1
 62
     0
 92
       -2
340
0
 93
        0
 40
0.045
309
GRIDFORMAT_END
309
TABLEFORMAT_END
  1
CELLSTYLE_BEGIN
 90
        1
 91
        1
300
_TITLE
309
CELLSTYLE_END
300
CELLSTYLE
  1
TABLEFORMAT_BEGIN
 90
        5
170
     1
 91
        0
 92
        0
 62
   257
 93
        1
300
CONTENTFORMAT
  1
CONTENTFORMAT_BEGIN
 90
        0
 91
        0
 92
        4
 93
        0
300

 40
0.0
140
1.0
 94
        5
 62
     0
340
C1C
144
0.18
309
CONTENTFORMAT_END
171
     1
301
MARGIN
  1
CELLMARGIN_BEGIN
 40
0.06
 40
0.06
 40
0.06
 40
0.06
 40
0.18
 40
0.18
309
CELLMARGIN_END
 94
        6
 95
        1
302
GRIDFORMAT
  1
GRIDFORMAT_BEGIN
 90
        0
 91
        1
 62
     0
 92
       -2
340
0
 93
        0
 40
0.045
309
GRIDFORMAT_END
 95
        2
302
GRIDFORMAT
  1
GRIDFORMAT_BEGIN
 90
        0
 91
        1
 62
     0
 92
       -2
340
0
 93
        0
 40
0.045
309
GRIDFORMAT_END
 95
        4
302
GRIDFORMAT
  1
GRIDFORMAT_BEGIN
 90
        0
 91
        1
 62
     0
 92
       -2
340
0
 93
        0
 40
0.045
309
GRIDFORMAT_END
 95
        8
302
GRIDFORMAT
  1
GRIDFORMAT_BEGIN
 90
        0
 91
        1
 62
     0
 92
       -2
340
0
 93
        0
 40
0.045
309
GRIDFORMAT_END
 95
       16
302
GRIDFORMAT
  1
GRIDFORMAT_BEGIN
 90
        0
 91
        1
 62
     0
 92
       -2
340
0
 93
        0
 40
0.045
309
GRIDFORMAT_END
 95
       32
302
GRIDFORMAT
  1
GRIDFORMAT_BEGIN
 90
        0
 91
        1
 62
     0
 92
       -2
340
0
 93
        0
 40
0.045
309
GRIDFORMAT_END
309
TABLEFORMAT_END
  1
CELLSTYLE_BEGIN
 90
        2
 91
        1
300
_HEADER
309
CELLSTYLE_END
300
CELLSTYLE
  1
TABLEFORMAT_BEGIN
 90
        5
170
     1
 91
        0
 92
        0
 62
   257
 93
        1
300
CONTENTFORMAT
  1
CONTENTFORMAT_BEGIN
 90
        0
 91
        0
 92
        4
 93
        0
300

 40
0.0
140
1.0
 94
        2
 62
     0
340
C1C
144
0.18
309
CONTENTFORMAT_END
171
     1
301
MARGIN
  1
CELLMARGIN_BEGIN
 40
0.06
 40
0.06
 40
0.06
 40
0.06
 40
0.18
 40
0.18
309
CELLMARGIN_END
 94
        6
 95
        1
302
GRIDFORMAT
  1
GRIDFORMAT_BEGIN
 90
        0
 91
        1
 62
     0
 92
       -2
340
0
 93
        0
 40
0.045
309
GRIDFORMAT_END
 95
        2
302
GRIDFORMAT
  1
GRIDFORMAT_BEGIN
 90
        0
 91
        1
 62
     0
 92
       -2
340
0
 93
        0
 40
0.045
309
GRIDFORMAT_END
 95
        4
302
GRIDFORMAT
  1
GRIDFORMAT_BEGIN
 90
        0
 91
        1
 62
     0
 92
       -2
340
0
 93
        0
 40
0.045
309
GRIDFORMAT_END
 95
        8
302
GRIDFORMAT
  1
GRIDFORMAT_BEGIN
 90
        0
 91
        1
 62
     0
 92
       -2
340
0
 93
        0
 40
0.045
309
GRIDFORMAT_END
 95
       16
302
GRIDFORMAT
  1
GRIDFORMAT_BEGIN
 90
        0
 91
        1
 62
     0
 92
       -2
340
0
 93
        0
 40
0.045
309
GRIDFORMAT_END
 95
       32
302
GRIDFORMAT
  1
GRIDFORMAT_BEGIN
 90
        0
 91
        1
 62
     0
 92
       -2
340
0
 93
        0
 40
0.045
309
GRIDFORMAT_END
309
TABLEFORMAT_END
  1
CELLSTYLE_BEGIN
 90
        3
 91
        2
300
_DATA
309
CELLSTYLE_END
  0
XRECORD
  5
E52
102
{ACAD_REACTORS
330
E51
102
}
330
E51
100
AcDbXrecord
280
     1
102
RTVSPropertyOp0
 70
     1
102
RTVSPropertyOp1
 70
     1
102
RTVSPropertyOp2
 70
     1
102
RTVSPropertyOp3
 70
     1
102
RTVSPropertyOp4
 70
     1
102
RTVSPropertyOp5
 70
     1
102
RTVSPropertyOp6
 70
     1
102
RTVSPropertyOp7
 70
     1
102
RTVSPropertyOp8
 70
     1
102
RTVSPropertyOp9
 70
     1
102
RTVSPropertyOp10
 70
     1
102
RTVSPropertyOp11
 70
     1
102
RTVSPropertyOp12
 70
     1
102
RTVSPropertyOp13
 70
     1
102
RTVSPropertyOp14
 70
     1
102
RTVSPropertyOp15
 70
     1
102
RTVSPropertyOp16
 70
     1
102
RTVSPropertyOp17
 70
     1
102
RTVSPropertyOp18
 70
     1
102
RTVSPropertyOp19
 70
     1
102
RTVSPropertyOp20
 70
     1
102
RTVSPropertyOp21
 70
     1
102
RTVSPropertyOp22
 70
     1
102
RTVSPropertyOp23
 70
     1
102
RTVSPropertyOp24
 70
     1
102
RTVSPropertyOp25
 70
     1
102
RTVSPropertyOp26
 70
     1
102
RTVSPropertyOp27
 70
     1
  0
XRECORD
  5
E62
102
{ACAD_REACTORS
330
E61
102
}
330
E61
100
AcDbXrecord
280
     1
102
RTVSPropertyOp0
 70
     1
102
RTVSPropertyOp1
 70
     1
102
RTVSPropertyOp2
 70
     1
102
RTVSPropertyOp3
 70
     1
102
RTVSPropertyOp4
 70
     1
102
RTVSPropertyOp5
 70
     1
102
RTVSPropertyOp6
 70
     1
102
RTVSPropertyOp7
 70
     1
102
RTVSPropertyOp8
 70
     1
102
RTVSPropertyOp9
 70
     1
102
RTVSPropertyOp10
 70
     1
102
RTVSPropertyOp11
 70
     1
102
RTVSPropertyOp12
 70
     1
102
RTVSPropertyOp13
 70
     1
102
RTVSPropertyOp14
 70
     1
102
RTVSPropertyOp15
 70
     1
102
RTVSPropertyOp16
 70
     1
102
RTVSPropertyOp17
 70
     1
102
RTVSPropertyOp18
 70
     1
102
RTVSPropertyOp19
 70
     1
102
RTVSPropertyOp20
 70
     1
102
RTVSPropertyOp21
 70
     1
102
RTVSPropertyOp22
 70
     1
102
RTVSPropertyOp23
 70
     1
102
RTVSPropertyOp24
 70
     1
102
RTVSPropertyOp25
 70
     1
102
RTVSPropertyOp26
 70
     1
102
RTVSPropertyOp27
 70
     1
  0
XRECORD
  5
E56
102
{ACAD_REACTORS
330
E55
102
}
330
E55
100
AcDbXrecord
280
     1
102
RTVSPropertyOp0
 70
     1
102
RTVSPropertyOp1
 70
     1
102
RTVSPropertyOp2
 70
     1
102
RTVSPropertyOp3
 70
     1
102
RTVSPropertyOp4
 70
     1
102
RTVSPropertyOp5
 70
     1
102
RTVSPropertyOp6
 70
     1
102
RTVSPropertyOp7
 70
     1
102
RTVSPropertyOp8
 70
     1
102
RTVSPropertyOp9
 70
     1
102
RTVSPropertyOp10
 70
     1
102
RTVSPropertyOp11
 70
     1
102
RTVSPropertyOp12
 70
     1
102
RTVSPropertyOp13
 70
     1
102
RTVSPropertyOp14
 70
     1
102
RTVSPropertyOp15
 70
     1
102
RTVSPropertyOp16
 70
     1
102
RTVSPropertyOp17
 70
     1
102
RTVSPropertyOp18
 70
     1
102
RTVSPropertyOp19
 70
     1
102
RTVSPropertyOp20
 70
     1
102
RTVSPropertyOp21
 70
     1
102
RTVSPropertyOp22
 70
     1
102
RTVSPropertyOp23
 70
     1
102
RTVSPropertyOp24
 70
     1
102
RTVSPropertyOp25
 70
     1
102
RTVSPropertyOp26
 70
     1
102
RTVSPropertyOp27
 70
     1
  0
XRECORD
  5
E60
102
{ACAD_REACTORS
330
E5F
102
}
330
E5F
100
AcDbXrecord
280
     1
102
RTVSPropertyOp0
 70
     1
102
RTVSPropertyOp1
 70
     1
102
RTVSPropertyOp2
 70
     1
102
RTVSPropertyOp3
 70
     1
102
RTVSPropertyOp4
 70
     1
102
RTVSPropertyOp5
 70
     1
102
RTVSPropertyOp6
 70
     1
102
RTVSPropertyOp7
 70
     1
102
RTVSPropertyOp8
 70
     1
102
RTVSPropertyOp9
 70
     1
102
RTVSPropertyOp10
 70
     1
102
RTVSPropertyOp11
 70
     1
102
RTVSPropertyOp12
 70
     1
102
RTVSPropertyOp13
 70
     1
102
RTVSPropertyOp14
 70
     1
102
RTVSPropertyOp15
 70
     1
102
RTVSPropertyOp16
 70
     1
102
RTVSPropertyOp17
 70
     1
102
RTVSPropertyOp18
 70
     1
102
RTVSPropertyOp19
 70
     1
102
RTVSPropertyOp20
 70
     1
102
RTVSPropertyOp21
 70
     1
102
RTVSPropertyOp22
 70
     1
102
RTVSPropertyOp23
 70
     1
102
RTVSPropertyOp24
 70
     1
102
RTVSPropertyOp25
 70
     1
102
RTVSPropertyOp26
 70
     1
102
RTVSPropertyOp27
 70
     1
  0
XRECORD
  5
E68
102
{ACAD_REACTORS
330
E67
102
}
330
E67
100
AcDbXrecord
280
     1
102
RTVSPropertyOp0
 70
     1
102
RTVSPropertyOp1
 70
     1
102
RTVSPropertyOp2
 70
     1
102
RTVSPropertyOp3
 70
     1
102
RTVSPropertyOp4
 70
     1
102
RTVSPropertyOp5
 70
     1
102
RTVSPropertyOp6
 70
     1
102
RTVSPropertyOp7
 70
     1
102
RTVSPropertyOp8
 70
     1
102
RTVSPropertyOp9
 70
     1
102
RTVSPropertyOp10
 70
     1
102
RTVSPropertyOp11
 70
     1
102
RTVSPropertyOp12
 70
     1
102
RTVSPropertyOp13
 70
     1
102
RTVSPropertyOp14
 70
     1
102
RTVSPropertyOp15
 70
     1
102
RTVSPropertyOp16
 70
     1
102
RTVSPropertyOp17
 70
     1
102
RTVSPropertyOp18
 70
     1
102
RTVSPropertyOp19
 70
     1
102
RTVSPropertyOp20
 70
     1
102
RTVSPropertyOp21
 70
     1
102
RTVSPropertyOp22
 70
     1
102
RTVSPropertyOp23
 70
     1
102
RTVSPropertyOp24
 70
     1
102
RTVSPropertyOp25
 70
     1
102
RTVSPropertyOp26
 70
     1
102
RTVSPropertyOp27
 70
     1
  0
XRECORD
  5
E70
102
{ACAD_REACTORS
330
E6F
102
}
330
E6F
100
AcDbXrecord
280
     1
102
RTVSPropertyOp0
 70
     1
102
RTVSPropertyOp1
 70
     1
102
RTVSPropertyOp2
 70
     1
102
RTVSPropertyOp3
 70
     1
102
RTVSPropertyOp4
 70
     1
102
RTVSPropertyOp5
 70
     1
102
RTVSPropertyOp6
 70
     1
102
RTVSPropertyOp7
 70
     1
102
RTVSPropertyOp8
 70
     1
102
RTVSPropertyOp9
 70
     1
102
RTVSPropertyOp10
 70
     1
102
RTVSPropertyOp11
 70
     1
102
RTVSPropertyOp12
 70
     1
102
RTVSPropertyOp13
 70
     1
102
RTVSPropertyOp14
 70
     1
102
RTVSPropertyOp15
 70
     1
102
RTVSPropertyOp16
 70
     1
102
RTVSPropertyOp17
 70
     1
102
RTVSPropertyOp18
 70
     1
102
RTVSPropertyOp19
 70
     1
102
RTVSPropertyOp20
 70
     1
102
RTVSPropertyOp21
 70
     1
102
RTVSPropertyOp22
 70
     1
102
RTVSPropertyOp23
 70
     1
102
RTVSPropertyOp24
 70
     1
102
RTVSPropertyOp25
 70
     1
102
RTVSPropertyOp26
 70
     1
102
RTVSPropertyOp27
 70
     1
  0
XRECORD
  5
E64
102
{ACAD_REACTORS
330
E63
102
}
330
E63
100
AcDbXrecord
280
     1
102
RTVSPropertyOp0
 70
     1
102
RTVSPropertyOp1
 70
     1
102
RTVSPropertyOp2
 70
     1
102
RTVSPropertyOp3
 70
     1
102
RTVSPropertyOp4
 70
     1
102
RTVSPropertyOp5
 70
     1
102
RTVSPropertyOp6
 70
     1
102
RTVSPropertyOp7
 70
     1
102
RTVSPropertyOp8
 70
     1
102
RTVSPropertyOp9
 70
     1
102
RTVSPropertyOp10
 70
     1
102
RTVSPropertyOp11
 70
     1
102
RTVSPropertyOp12
 70
     1
102
RTVSPropertyOp13
 70
     1
102
RTVSPropertyOp14
 70
     1
102
RTVSPropertyOp15
 70
     1
102
RTVSPropertyOp16
 70
     1
102
RTVSPropertyOp17
 70
     1
102
RTVSPropertyOp18
 70
     1
102
RTVSPropertyOp19
 70
     1
102
RTVSPropertyOp20
 70
     1
102
RTVSPropertyOp21
 70
     1
102
RTVSPropertyOp22
 70
     1
102
RTVSPropertyOp23
 70
     1
102
RTVSPropertyOp24
 70
     1
102
RTVSPropertyOp25
 70
     1
102
RTVSPropertyOp26
 70
     1
102
RTVSPropertyOp27
 70
     1
  0
XRECORD
  5
E66
102
{ACAD_REACTORS
330
E65
102
}
330
E65
100
AcDbXrecord
280
     1
102
RTVSPropertyOp0
 70
     1
102
RTVSPropertyOp1
 70
     1
102
RTVSPropertyOp2
 70
     1
102
RTVSPropertyOp3
 70
     1
102
RTVSPropertyOp4
 70
     1
102
RTVSPropertyOp5
 70
     1
102
RTVSPropertyOp6
 70
     1
102
RTVSPropertyOp7
 70
     1
102
RTVSPropertyOp8
 70
     1
102
RTVSPropertyOp9
 70
     1
102
RTVSPropertyOp10
 70
     1
102
RTVSPropertyOp11
 70
     1
102
RTVSPropertyOp12
 70
     1
102
RTVSPropertyOp13
 70
     1
102
RTVSPropertyOp14
 70
     1
102
RTVSPropertyOp15
 70
     1
102
RTVSPropertyOp16
 70
     1
102
RTVSPropertyOp17
 70
     1
102
RTVSPropertyOp18
 70
     1
102
RTVSPropertyOp19
 70
     1
102
RTVSPropertyOp20
 70
     1
102
RTVSPropertyOp21
 70
     1
102
RTVSPropertyOp22
 70
     1
102
RTVSPropertyOp23
 70
     1
102
RTVSPropertyOp24
 70
     1
102
RTVSPropertyOp25
 70
     1
102
RTVSPropertyOp26
 70
     1
102
RTVSPropertyOp27
 70
     1
  0
XRECORD
  5
E76
102
{ACAD_REACTORS
330
E75
102
}
330
E75
100
AcDbXrecord
280
     1
102
RTVSPropertyOp0
 70
     0
102
RTVSPropertyOp1
 70
     0
102
RTVSPropertyOp2
 70
     0
102
RTVSPropertyOp3
 70
     0
102
RTVSPropertyOp4
 70
     0
102
RTVSPropertyOp5
 70
     0
102
RTVSPropertyOp6
 70
     0
102
RTVSPropertyOp7
 70
     0
102
RTVSPropertyOp8
 70
     0
102
RTVSPropertyOp9
 70
     0
102
RTVSPropertyOp10
 70
     0
102
RTVSPropertyOp11
 70
     0
102
RTVSPropertyOp12
 70
     0
102
RTVSPropertyOp13
 70
     0
102
RTVSPropertyOp14
 70
     2
102
RTVSPropertyOp15
 70
     0
102
RTVSPropertyOp16
 70
     0
102
RTVSPropertyOp17
 70
     0
102
RTVSPropertyOp18
 70
     0
102
RTVSPropertyOp19
 70
     0
102
RTVSPropertyOp20
 70
     0
102
RTVSPropertyOp21
 70
     0
102
RTVSPropertyOp22
 70
     0
102
RTVSPropertyOp23
 70
     0
102
RTVSPropertyOp24
 70
     0
102
RTVSPropertyOp25
 70
     0
102
RTVSPropertyOp26
 70
     0
102
RTVSPropertyOp27
 70
     0
  0
XRECORD
  5
E6E
102
{ACAD_REACTORS
330
E6D
102
}
330
E6D
100
AcDbXrecord
280
     1
102
RTVSPropertyOp0
 70
     1
102
RTVSPropertyOp1
 70
     1
102
RTVSPropertyOp2
 70
     1
102
RTVSPropertyOp3
 70
     1
102
RTVSPropertyOp4
 70
     1
102
RTVSPropertyOp5
 70
     1
102
RTVSPropertyOp6
 70
     1
102
RTVSPropertyOp7
 70
     1
102
RTVSPropertyOp8
 70
     1
102
RTVSPropertyOp9
 70
     1
102
RTVSPropertyOp10
 70
     1
102
RTVSPropertyOp11
 70
     1
102
RTVSPropertyOp12
 70
     1
102
RTVSPropertyOp13
 70
     1
102
RTVSPropertyOp14
 70
     1
102
RTVSPropertyOp15
 70
     1
102
RTVSPropertyOp16
 70
     1
102
RTVSPropertyOp17
 70
     1
102
RTVSPropertyOp18
 70
     1
102
RTVSPropertyOp19
 70
     1
102
RTVSPropertyOp20
 70
     1
102
RTVSPropertyOp21
 70
     1
102
RTVSPropertyOp22
 70
     1
102
RTVSPropertyOp23
 70
     1
102
RTVSPropertyOp24
 70
     1
102
RTVSPropertyOp25
 70
     1
102
RTVSPropertyOp26
 70
     1
102
RTVSPropertyOp27
 70
     1
  0
XRECORD
  5
E58
102
{ACAD_REACTORS
330
E57
102
}
330
E57
100
AcDbXrecord
280
     1
102
RTVSPropertyOp0
 70
     1
102
RTVSPropertyOp1
 70
     1
102
RTVSPropertyOp2
 70
     1
102
RTVSPropertyOp3
 70
     1
102
RTVSPropertyOp4
 70
     1
102
RTVSPropertyOp5
 70
     1
102
RTVSPropertyOp6
 70
     1
102
RTVSPropertyOp7
 70
     1
102
RTVSPropertyOp8
 70
     1
102
RTVSPropertyOp9
 70
     1
102
RTVSPropertyOp10
 70
     1
102
RTVSPropertyOp11
 70
     1
102
RTVSPropertyOp12
 70
     1
102
RTVSPropertyOp13
 70
     1
102
RTVSPropertyOp14
 70
     1
102
RTVSPropertyOp15
 70
     1
102
RTVSPropertyOp16
 70
     1
102
RTVSPropertyOp17
 70
     1
102
RTVSPropertyOp18
 70
     1
102
RTVSPropertyOp19
 70
     1
102
RTVSPropertyOp20
 70
     1
102
RTVSPropertyOp21
 70
     1
102
RTVSPropertyOp22
 70
     1
102
RTVSPropertyOp23
 70
     1
102
RTVSPropertyOp24
 70
     1
102
RTVSPropertyOp25
 70
     1
102
RTVSPropertyOp26
 70
     1
102
RTVSPropertyOp27
 70
     1
  0
XRECORD
  5
E5A
102
{ACAD_REACTORS
330
E59
102
}
330
E59
100
AcDbXrecord
280
     1
102
RTVSPropertyOp0
 70
     1
102
RTVSPropertyOp1
 70
     1
102
RTVSPropertyOp2
 70
     1
102
RTVSPropertyOp3
 70
     1
102
RTVSPropertyOp4
 70
     1
102
RTVSPropertyOp5
 70
     1
102
RTVSPropertyOp6
 70
     1
102
RTVSPropertyOp7
 70
     1
102
RTVSPropertyOp8
 70
     1
102
RTVSPropertyOp9
 70
     1
102
RTVSPropertyOp10
 70
     1
102
RTVSPropertyOp11
 70
     1
102
RTVSPropertyOp12
 70
     1
102
RTVSPropertyOp13
 70
     1
102
RTVSPropertyOp14
 70
     1
102
RTVSPropertyOp15
 70
     1
102
RTVSPropertyOp16
 70
     1
102
RTVSPropertyOp17
 70
     1
102
RTVSPropertyOp18
 70
     1
102
RTVSPropertyOp19
 70
     1
102
RTVSPropertyOp20
 70
     1
102
RTVSPropertyOp21
 70
     1
102
RTVSPropertyOp22
 70
     1
102
RTVSPropertyOp23
 70
     1
102
RTVSPropertyOp24
 70
     1
102
RTVSPropertyOp25
 70
     1
102
RTVSPropertyOp26
 70
     1
102
RTVSPropertyOp27
 70
     1
  0
XRECORD
  5
E5C
102
{ACAD_REACTORS
330
E5B
102
}
330
E5B
100
AcDbXrecord
280
     1
102
RTVSPropertyOp0
 70
     1
102
RTVSPropertyOp1
 70
     1
102
RTVSPropertyOp2
 70
     1
102
RTVSPropertyOp3
 70
     1
102
RTVSPropertyOp4
 70
     1
102
RTVSPropertyOp5
 70
     1
102
RTVSPropertyOp6
 70
     1
102
RTVSPropertyOp7
 70
     1
102
RTVSPropertyOp8
 70
     1
102
RTVSPropertyOp9
 70
     1
102
RTVSPropertyOp10
 70
     1
102
RTVSPropertyOp11
 70
     1
102
RTVSPropertyOp12
 70
     1
102
RTVSPropertyOp13
 70
     1
102
RTVSPropertyOp14
 70
     1
102
RTVSPropertyOp15
 70
     1
102
RTVSPropertyOp16
 70
     1
102
RTVSPropertyOp17
 70
     1
102
RTVSPropertyOp18
 70
     1
102
RTVSPropertyOp19
 70
     1
102
RTVSPropertyOp20
 70
     1
102
RTVSPropertyOp21
 70
     1
102
RTVSPropertyOp22
 70
     1
102
RTVSPropertyOp23
 70
     1
102
RTVSPropertyOp24
 70
     1
102
RTVSPropertyOp25
 70
     1
102
RTVSPropertyOp26
 70
     1
102
RTVSPropertyOp27
 70
     1
  0
XRECORD
  5
E5E
102
{ACAD_REACTORS
330
E5D
102
}
330
E5D
100
AcDbXrecord
280
     1
102
RTVSPropertyOp0
 70
     1
102
RTVSPropertyOp1
 70
     1
102
RTVSPropertyOp2
 70
     1
102
RTVSPropertyOp3
 70
     1
102
RTVSPropertyOp4
 70
     1
102
RTVSPropertyOp5
 70
     1
102
RTVSPropertyOp6
 70
     1
102
RTVSPropertyOp7
 70
     1
102
RTVSPropertyOp8
 70
     1
102
RTVSPropertyOp9
 70
     1
102
RTVSPropertyOp10
 70
     1
102
RTVSPropertyOp11
 70
     1
102
RTVSPropertyOp12
 70
     1
102
RTVSPropertyOp13
 70
     1
102
RTVSPropertyOp14
 70
     1
102
RTVSPropertyOp15
 70
     1
102
RTVSPropertyOp16
 70
     1
102
RTVSPropertyOp17
 70
     1
102
RTVSPropertyOp18
 70
     1
102
RTVSPropertyOp19
 70
     1
102
RTVSPropertyOp20
 70
     1
102
RTVSPropertyOp21
 70
     1
102
RTVSPropertyOp22
 70
     1
102
RTVSPropertyOp23
 70
     1
102
RTVSPropertyOp24
 70
     1
102
RTVSPropertyOp25
 70
     1
102
RTVSPropertyOp26
 70
     1
102
RTVSPropertyOp27
 70
     1
  0
XRECORD
  5
E72
102
{ACAD_REACTORS
330
E71
102
}
330
E71
100
AcDbXrecord
280
     1
102
RTVSPropertyOp0
 70
     0
102
RTVSPropertyOp1
 70
     0
102
RTVSPropertyOp2
 70
     0
102
RTVSPropertyOp3
 70
     0
102
RTVSPropertyOp4
 70
     0
102
RTVSPropertyOp5
 70
     0
102
RTVSPropertyOp6
 70
     0
102
RTVSPropertyOp7
 70
     0
102
RTVSPropertyOp8
 70
     0
102
RTVSPropertyOp9
 70
     0
102
RTVSPropertyOp10
 70
     0
102
RTVSPropertyOp11
 70
     0
102
RTVSPropertyOp12
 70
     0
102
RTVSPropertyOp13
 70
     0
102
RTVSPropertyOp14
 70
     2
102
RTVSPropertyOp15
 70
     0
102
RTVSPropertyOp16
 70
     0
102
RTVSPropertyOp17
 70
     0
102
RTVSPropertyOp18
 70
     0
102
RTVSPropertyOp19
 70
     0
102
RTVSPropertyOp20
 70
     0
102
RTVSPropertyOp21
 70
     0
102
RTVSPropertyOp22
 70
     0
102
RTVSPropertyOp23
 70
     0
102
RTVSPropertyOp24
 70
     0
102
RTVSPropertyOp25
 70
     0
102
RTVSPropertyOp26
 70
     0
102
RTVSPropertyOp27
 70
     0
  0
XRECORD
  5
E6C
102
{ACAD_REACTORS
330
E6B
102
}
330
E6B
100
AcDbXrecord
280
     1
102
RTVSPropertyOp0
 70
     1
102
RTVSPropertyOp1
 70
     1
102
RTVSPropertyOp2
 70
     1
102
RTVSPropertyOp3
 70
     1
102
RTVSPropertyOp4
 70
     1
102
RTVSPropertyOp5
 70
     1
102
RTVSPropertyOp6
 70
     1
102
RTVSPropertyOp7
 70
     1
102
RTVSPropertyOp8
 70
     1
102
RTVSPropertyOp9
 70
     1
102
RTVSPropertyOp10
 70
     1
102
RTVSPropertyOp11
 70
     1
102
RTVSPropertyOp12
 70
     1
102
RTVSPropertyOp13
 70
     1
102
RTVSPropertyOp14
 70
     1
102
RTVSPropertyOp15
 70
     1
102
RTVSPropertyOp16
 70
     1
102
RTVSPropertyOp17
 70
     1
102
RTVSPropertyOp18
 70
     1
102
RTVSPropertyOp19
 70
     1
102
RTVSPropertyOp20
 70
     1
102
RTVSPropertyOp21
 70
     1
102
RTVSPropertyOp22
 70
     1
102
RTVSPropertyOp23
 70
     1
102
RTVSPropertyOp24
 70
     1
102
RTVSPropertyOp25
 70
     1
102
RTVSPropertyOp26
 70
     1
102
RTVSPropertyOp27
 70
     1
  0
XRECORD
  5
E74
102
{ACAD_REACTORS
330
E73
102
}
330
E73
100
AcDbXrecord
280
     1
102
RTVSPropertyOp0
 70
     0
102
RTVSPropertyOp1
 70
     0
102
RTVSPropertyOp2
 70
     0
102
RTVSPropertyOp3
 70
     0
102
RTVSPropertyOp4
 70
     0
102
RTVSPropertyOp5
 70
     0
102
RTVSPropertyOp6
 70
     0
102
RTVSPropertyOp7
 70
     0
102
RTVSPropertyOp8
 70
     0
102
RTVSPropertyOp9
 70
     0
102
RTVSPropertyOp10
 70
     0
102
RTVSPropertyOp11
 70
     0
102
RTVSPropertyOp12
 70
     0
102
RTVSPropertyOp13
 70
     0
102
RTVSPropertyOp14
 70
     2
102
RTVSPropertyOp15
 70
     0
102
RTVSPropertyOp16
 70
     0
102
RTVSPropertyOp17
 70
     0
102
RTVSPropertyOp18
 70
     0
102
RTVSPropertyOp19
 70
     0
102
RTVSPropertyOp20
 70
     0
102
RTVSPropertyOp21
 70
     0
102
RTVSPropertyOp22
 70
     0
102
RTVSPropertyOp23
 70
     0
102
RTVSPropertyOp24
 70
     0
102
RTVSPropertyOp25
 70
     0
102
RTVSPropertyOp26
 70
     0
102
RTVSPropertyOp27
 70
     0
  0
XRECORD
  5
E54
102
{ACAD_REACTORS
330
E53
102
}
330
E53
100
AcDbXrecord
280
     1
102
RTVSPropertyOp0
 70
     1
102
RTVSPropertyOp1
 70
     1
102
RTVSPropertyOp2
 70
     1
102
RTVSPropertyOp3
 70
     1
102
RTVSPropertyOp4
 70
     1
102
RTVSPropertyOp5
 70
     1
102
RTVSPropertyOp6
 70
     1
102
RTVSPropertyOp7
 70
     1
102
RTVSPropertyOp8
 70
     1
102
RTVSPropertyOp9
 70
     1
102
RTVSPropertyOp10
 70
     1
102
RTVSPropertyOp11
 70
     1
102
RTVSPropertyOp12
 70
     1
102
RTVSPropertyOp13
 70
     1
102
RTVSPropertyOp14
 70
     1
102
RTVSPropertyOp15
 70
     1
102
RTVSPropertyOp16
 70
     1
102
RTVSPropertyOp17
 70
     1
102
RTVSPropertyOp18
 70
     1
102
RTVSPropertyOp19
 70
     1
102
RTVSPropertyOp20
 70
     1
102
RTVSPropertyOp21
 70
     1
102
RTVSPropertyOp22
 70
     1
102
RTVSPropertyOp23
 70
     1
102
RTVSPropertyOp24
 70
     1
102
RTVSPropertyOp25
 70
     1
102
RTVSPropertyOp26
 70
     1
102
RTVSPropertyOp27
 70
     1
  0
XRECORD
  5
E6A
102
{ACAD_REACTORS
330
E69
102
}
330
E69
100
AcDbXrecord
280
     1
102
RTVSPropertyOp0
 70
     1
102
RTVSPropertyOp1
 70
     1
102
RTVSPropertyOp2
 70
     1
102
RTVSPropertyOp3
 70
     1
102
RTVSPropertyOp4
 70
     1
102
RTVSPropertyOp5
 70
     1
102
RTVSPropertyOp6
 70
     1
102
RTVSPropertyOp7
 70
     1
102
RTVSPropertyOp8
 70
     1
102
RTVSPropertyOp9
 70
     1
102
RTVSPropertyOp10
 70
     1
102
RTVSPropertyOp11
 70
     1
102
RTVSPropertyOp12
 70
     1
102
RTVSPropertyOp13
 70
     1
102
RTVSPropertyOp14
 70
     1
102
RTVSPropertyOp15
 70
     1
102
RTVSPropertyOp16
 70
     1
102
RTVSPropertyOp17
 70
     1
102
RTVSPropertyOp18
 70
     1
102
RTVSPropertyOp19
 70
     1
102
RTVSPropertyOp20
 70
     1
102
RTVSPropertyOp21
 70
     1
102
RTVSPropertyOp22
 70
     1
102
RTVSPropertyOp23
 70
     1
102
RTVSPropertyOp24
 70
     1
102
RTVSPropertyOp25
 70
     1
102
RTVSPropertyOp26
 70
     1
102
RTVSPropertyOp27
 70
     1
  0
ENDSEC
  0
EOF
